letra, letras, acorde, acordes, tablatura, tablaturas, partitura, partituras de la canción un Gran Circo de Maldita Vecindad, 38233

un Gran Circo de Maldita Vecindad

Colaboración de Alejandro H. Longinos (TAB)

(the_spiro2505 @ hotmail.com)          (Visitas: 2808)

Ver un Gran Circo de Maldita Vecindad en vista para impresión



¿Dudas de cómo es un acorde? Visitar la página cómo formar acordes en guitarra

Ezta ez una mejor verzión,
ya ke ezta korregida y aumentada;
la puze tal y komo zuena en el
dizko........

/ \ = Zlide Up/Down
 ^  = RaZgueo hacia ABAJO
 v  = RaZgueo hacia ARRIBA
 h  = HaMeR On
aKoRdEz::

   Am Dm F G
e:-5--7--1-3-:
B:-5--8--1-3-:
G:-5--9--2-4-:
D:-7--9--3-5-:
A:-0--7--3-5-:
E:-x--7--1-3-:

iNtRo::

rIfF 1(gUiTaRrA aKúzTiKa)
   Am         \ F      /G
e:--------------------------
B:--------------------------
G:-----5-----5\-----2-2/4---
D:---7------7-\---3------5--
A:-7------7---\-3---------5-
E:--------------------------

   Am     F   \        /G     Am
e:--------------------------:-------:
B:--------------------------:-------:
G:-----5-----5\-----2-2h4---:-----5-:
D:---7------7-\---3------5--:---7---:
A:-7------7---\-3---------5-:-7-----:
E:--------------------------:-------:


rIfF 2(gUiTaRrA eLeKtRiKa)
   Am           Dm
e:--------------------------:
B:-----5-----5------8-----8-:
G:---5---5-5------9---9-9---:
D:-7------7-----9------9----:
A:--------------------------:
E:--------------------------:____4 vEcEz


Am-Dm____4 vEcEz


Am                 Dm
 Difícil es caminar
                   Am
en un extraño lugar,
                        Dm
en donde el hambre se ve
                            Am
como un grán círco en acción.
                          Dm
En las calles no hay telón
                    Am
asi que puedes mirar
                    Dm
como rico espectador
                          Am
te invíto a nuestra ciudad.


rIfF 3
   Am              Dm
e:---------5---------------7----:
B:-------5---5-----------8----8-:
G:-----5-------5-------9--------:
D:---7-----------7---9----------:
A:-7---------------7------------:
E:------------------------------:


Am
En una esquina es muy fácil
               Dm
que tú puedas ver
                                
a un niño que trabaja y fínge 
     Am
sonreír,
                  
lanzando pelotas 
      Dm
pa'vivír
                           
sólo es otro mal payaso 
      Am
para tí.

También sin quererlo 
        Dm
puedes ver
                         
a un flaco extraño 
         Am
gran faquír
                    
que víve y víve 
       Dm
sin comer
              
LANZANDO FUEGO!!!!!


aKi La LiRa KaMbIa De RiTmO(sKaNkIn LeNtO)::

Am-Dm-Am                         F
       Gran circo es esta ciudad,  ahah
Am-Dm-Am
       un alto un siga, un alto.
F                   
Un alto, un siga, un alto.

Am-Dm-Am                         F
       Gran circo es esta ciudad,  ahah
Am-Dm-Am
       un alto un siga, un alto.
F                   
Un alto, un siga, juuahh.


InTeRlÚdE::
   ^v^v^v^^v^ ^v^v^v^^v^
e:-5555xx7xx6-5555xx8xx7-
B:-5555xx5xx5-5555xx5xx7-
G:-5555xx5xx5-7777xx7xx7-
D:-7777xx7xx7-7777xx7xx7-
A:-----------------------
E:-----------------------

   ^v^v^v^^v^ ^v^v^v^^v^
e:-5555xx7xx6-5555xx8xx7-
B:-5555xx5xx5-5555xx5xx7-
G:-5555xx5xx5-7777xx7xx7-
D:-7777xx7xx7-7777xx7xx7-
A:-----------------------
E:-----------------------

   ^v^v^v^^v^ ^v^v^v^^v^
e:-5555xx7xx6-5555xx8xx7-
B:-5555xx5xx5-5555xx5xx7-
G:-5555xx5xx5-7777xx7xx7-
D:-7777xx7xx7-7777xx7xx7-
A:-----------------------
E:-----------------------

   ^v^v^v^^v^ ^v^v^v^vv^v
e:-5555xx7xx6-5555xx85576-:
B:-5555xx5xx5-5555xx5--5--:
G:-5555xx5xx5-7777xx------:
D:-7777xx7xx7-7777xx------:
A:------------------------:
E:------------------------:


Am-Dm-Am                         F
       Gran circo es esta ciudad,  ahah
Am-Dm-Am
       un alto un siga, un alto.
F                   
Un alto, un siga, un alto.

Am-Dm-Am                         F
       Gran circo es esta ciudad,  ahah
Am-Dm-Am
       un alto un siga, un alto.
F                   
Un alto, un siga, un alto.


Am                   Dm
 Es mágico este lugár
                        Am
mientras mas pobreza hay
                 Dm
mas alegría se ve.
                       Am
En las calles hay colór,
                      Dm
no falta algun saxofón
                      Am
al terminar la función
                         Dm
alla en el palco de honor
                   
nádie podrá ya reír...


oUtRo::
   Am              Dm
   ^v^v^v^v^v^v^v^v^
e:-x555x555x555x5557-:
B:-x555x555x555x5558-:
G:-x555x555x555x5559-:
D:-x777x777x777x7779-:
A:-x000x000x000x0007-:
E:-xxxxxxxxxxxxxxxx7-:____zIlEnCiO


Nadie podrá ya reír...


   Am              Dm
   ^v^v^v^v^v^v^v^v^
e:-x555x555x555x5557-:
B:-x555x555x555x5558-:
G:-x555x555x555x5559-:
D:-x777x777x777x7779-:
A:-x000x000x000x0007-:
E:-xxxxxxxxxxxxxxxx7-:____zIlEnCiO

   Am
   ^v^v^v^v^v^v^
e:-x555x555x555x-:
B:-x555x555x555x-:
G:-x555x555x555x-:
D:-x777x777x777x-:
A:-x000x000x000x-:
E:-xxxxxxxxxxxxx-:____zIlEnCiO

   Am               Dm
   ^v^v^v^v^v^v^v^v ^
e:-x555x555x555x555-7-:
B:-x555x555x555x555-8-:
G:-x555x555x555x555-9-:
D:-x777x777x777x777-9-:
A:-x000x000x000x000-7-:
E:-xxxxxxxxxxxxxxxx-7-:


Reír Reír Reír Reír....
   Am           Dm
e:--------------------------:
B:-----5-----5------8-----8-:
G:---5---5-5------9---9-9---:
D:-7------7-----9------9----:
A:--------------------------:
E:--------------------------:____2 vEcEz

Reír Reír Reír Reír....

rIff 4
   Am      Dm
e:------------------:
B:------------------:
G:------------------:
D:-7x7x7x7x9x9x9x9x-:
A:------------------:
E:------------------:____2 vEcEz

Am-Dm-Am                         F
       Gran circo es esta ciudad,  ahah
Am-Dm-Am
       un alto un siga, un alto.
F                   
Un alto, un siga, un alto.

Am-Dm-Am                         F
       Gran circo es esta ciudad,  ahah

Am-Dm-Am.

Bueno raza,puez eza ez toda la rola,ezta muy facil,
zolo lez rekomiendo ke la ezkuchen un par de vecez
para ke le agarren bien el pedo a loz tiempoz.

NOTA::Ezta verzión ez la ke toka el 
      'Pato'(guitarrista de la maldita)
      azí ke no me zalgan kon ke ezta mal.
      lo ke hice,fue ke se las puze,a manera
      ke no ze lez difikulte tanto,pero,
      ze zigue ezkuchando chingona.


   mR. sPiRo GoOdTrIpS:: the_spiro2505@hotmail.com



Keywords / Palabras clave: un Gran Circo, Maldita Vecindad, letras, letra, acordes, canciones, cancion, grupo, banda, cantante, tablatura, partitura, tocar con guitarra, armónica, teclado, bajo, ejecutar, bajar, mp3, música, chords, lyrics, versión, cover, piano, acrodes, acordes de un Gran Circo, Maldita Vecindad

Inicio | Artistas | Recursos | Buscar | AGREGA TU TABLATURA A 10ACORDES | Contacto

www.10acordes.com.ar - 2014© - 2014-11-29 05:10:51