letra, letras, acorde, acordes, tablatura, tablaturas, partitura, partituras de la canción La pantera rosa de LA PANTERA ROSA, 42448

La pantera rosa de LA PANTERA ROSA

Colaboración de (TAB)

(rodrilp98 @ live.com.ar)          (Visitas: )

Ver La pantera rosa de LA PANTERA ROSA en vista para impresión



¿Dudas de cómo es un acorde? Visitar la página cómo formar acordes en guitarra

1ra Frase:

|--------------------------------------------------------------------|
|--------------------------------------------------------------------|
|--------------------5-4-------3-2--2-0------------------------------|
|1-2--4-5--1-2--4-5-------1-2------------2-0-2-----------------------|
|--------------------------------------------------------------------|
|--------------------------------------------------------------------|

2da Frase:

|--------------------------------------------------------------------|
|--------------------------------------------------------------------|
|--------------------5-3-------5-4-----------------------------------|
|1-2--4-5--1-2--4-5-------1-2----------------------------------------|
|--------------------------------------------------------------------|
|--------------------------------------------------------------------|

3ra Frase:

|--------------------------------------------------------------------|
|--------------------------------------------------------------------|
|--------------------5-4-------3-2--2-0------------------------------|
|1-2--4-5--1-2--4-5-------1-2------------2-0-2-----------------------|
|--------------------------------------------------------------------|
|--------------------------------------------------------------------|

|0-------------------------------------------------------------------|
|--3-0---------------------------------------------------------------|
|------2-0------2-2-2-2-0--------------------------------------------|
|-----------2-------------2-0-2-2------------------------------------|
|--------------------------------------------------------------------|
|--------------------------------------------------------------------|



Keywords / Palabras clave: La pantera rosa, LA PANTERA ROSA, letras, letra, acordes, canciones, cancion, grupo, banda, cantante, tablatura, partitura, tocar con guitarra, armónica, teclado, bajo, ejecutar, bajar, mp3, música, chords, lyrics, versión, cover, piano, acrodes, acordes de La pantera rosa, LA PANTERA ROSA

Inicio | Artistas | Recursos | Buscar | AGREGA TU TABLATURA A 10ACORDES | Contacto

www.10acordes.com.ar - 2014© - 2014-11-01 10:36:34