letra, letras, acorde, acordes, tablatura, tablaturas, partitura, partituras de la canción A puro dolor de Son by Four, 570

A puro dolor de Son by Four

Colaboración de jose felipe vazquez (TAB)

(josef_97 @ hotmail.com)          (Visitas: 28866)

Ver A puro dolor de Son by Four en vista para impresión



¿Dudas de cómo es un acorde? Visitar la página cómo formar acordes en guitarra

solo
e|-3-3-3-1-0---------0-------------------------------0-1-0--------|
B|----------3-1-0-1-3-3-1-0---1-1---1-1---1-1---1-1-3-----3-1-0---|
G|-------------------------0-2---2-0---0-2------------------------|
D|----------------------------------------------------------------|
A|----------------------------------------------------------------|
E|----------------------------------------------------------------|

Riff 1
   C          G        Am       Em         F         C          G       
e|------------------------------------------------------------------3—-3-----|
B|-1--1-3-1s0-0--3-1-0-1--1-3-1-0--0-3-1-0-1-1-3-1s0-1--1-3-1s0-0--3-3—-3----|
G|---0----------0--------2--------0---------2----------0----------0---0-—0---|
D|---------------------------------------------------------------------------|
A|-3-------------------0--------2--------------------3-----------------------|
E|------------3----------------------------1--------------------3------------|

Riff 2 
   C         G         Am      Em         F         C         G
e|-0---3-1-0-3-3-3s5s3-0---3-1-0--------------3-1s0-0---3-1-0-3------3-3s5s3--|
B|----1-------------------1-------0-3-1-0-1—1----------1------3-3----3-3s5s3--|
G|---0-------------------2-------0----------2---------0----------0------------|
D|----------------------------------------------------------------0-----------|
A|-3-------------------0-------2--------------------3-------------------------|
E|-----------3----------------------------1-------------------3----3----------|

Intro(solo, riff 1, riff 2) 
   C                  G                Am
Perdona si te estoy amando en este momento
	Em                      F
pero me hacia falta escuchar de nuevo  
                 C                 G
aunque sea un instante tu respiración
    C                      G                  Am
Disculpa se que estoy violando nuestro juramento
                   Em                          F
se que está con alguien, que no es el momento
                   C               G
pero hay algo urgente que decirte hoy

Pre-coro
              Am
Me estoy muriendo
   Em          F   G
muriendo por verte
         Am
agonizando
     Em          F      G
muy lento y muy fuerte

Coro
C
Vida
    G                Am
devuélveme mis fantasías
     Em                 F
mis ganas de vivir la vida
      C          G
y devuélveme el aire
        C
cariño mío
  G                   Am
sin ti yo me siento vacío
     Em                F
las tardes son un laberinto
       C          G
y las noches me saben
  F    G     C
A puro dolor...
    C                 G                    Am
Quisiera decirte que hoy estoy de maravilla
                  Em                  F
que no me ha afectado lo de tu partida
              C                 G
pero con un dedo no se tapa el sol...

Pre-coro

Coro

(Riff 1)

Final:
   C                  G                 Am
Perdona si te estoy amando en este momento
               Em                    F
pero me hacia falta escuchar de nuevo
                 G                    C
Aunque sea un instante tu respiración...
(Riff 2)

al final del riff 2 se le agrega esto:

e|--1-----0--|
B|--1-----1--|
G|--------0--|
D|--------2--|
A|--------3--|
E|--------3--| 
va ligado del final porque es un remate

Los riff 1 y 2 son adornos que yo puse, pruébenlos a ver como suena
Alguna duda háganmelo saber:)



Keywords / Palabras clave: A puro dolor, Son by Four, letras, letra, acordes, canciones, cancion, grupo, banda, cantante, tablatura, partitura, tocar con guitarra, armónica, teclado, bajo, ejecutar, bajar, mp3, música, chords, lyrics, versión, cover, piano, acrodes, acordes de A puro dolor, Son by Four

Inicio | Artistas | Recursos | Buscar | AGREGA TU TABLATURA A 10ACORDES | Contacto

www.10acordes.com.ar - 2014© - 2014-11-29 02:45:58