letra, letras, acorde, acordes, tablatura, tablaturas, partitura, partituras de la canción Acordes para el cuatro de Cuatro Puertorriqueño, 948

Acordes para el cuatro de Cuatro Puertorriqueño

Colaboración de Luis Javier (TAB)

(l_jrm @ hotmail.com)          (Visitas: 32739)

Ver Acordes para el cuatro de Cuatro Puertorriqueño en vista para impresión



¿Dudas de cómo es un acorde? Visitar la página cómo formar acordes en guitarra

Acordes para el cuatro
Primero recuerda afinar bien el cuatro.
1ra - 2da - 3ra - 4ta - 5ta
Sol-G Re-D  La-A  Mi-E  Si-B


Mayores


         Do     Re     Mi     Fa     Sol    La     Si
G|-------0-------------1------2------0------2----------------------|
D|-------2------0------2------3------0------2------1---------------|
A|-------3------0------2------3------2------4------2---------------|
E|--------------2--------------------3-------------2---------------|
B|--------------3--------------------------------------------------|


Menores

										
	   Do	    Re     Mi	Fa    Sol  	  La	   Si				   
G|-------0-------------0------1------0------2----------------------|
D|-------1------0------2------3------0------2------0---------------|
A|-------3------0------2------3------1------3------2---------------|
E|--------------1--------------------3-------------2---------------|
B|--------------3--------------------------------------------------|
                                                                   


Oración de la Serenidad
  

Dios, concédeme la serenidad
para aceptar las cosas que no puedo cambiar,
el valor para cambiar las cosas que puedo cambiar
y la sabiduría para conocer la diferencia:

viviendo un día a la vez;
disfrutando un momento a la vez;
aceptando las adversidades como un camino hacia la paz;
pidiendo, como lo hizo Dios, en este mundo pecador tal
y como es, y no como me gustaría que fuera;
creyendo que Tú harás que todas las cosas estén bien
si yo me entrego a Tu voluntad;
de modo que pueda ser razonablemente feliz en esta vida
e increíblemente feliz Contigo en la siguiente.
 
Que Dios te bendiga...
Luis Javier Rodriguez
Sabana Grande , Puerto Rico



Keywords / Palabras clave: Acordes para el cuatro, Cuatro Puertorriqueño, letras, letra, acordes, canciones, cancion, grupo, banda, cantante, tablatura, partitura, tocar con guitarra, armónica, teclado, bajo, ejecutar, bajar, mp3, música, chords, lyrics, versión, cover, piano, acrodes, acordes de Acordes para el cuatro, Cuatro Puertorriqueño

Inicio | Artistas | Recursos | Buscar | AGREGA TU TABLATURA A 10ACORDES | Contacto

www.10acordes.com.ar - 2014© - 2014-10-23 04:36:51