letra, letras, acorde, acordes, tablatura, tablaturas, partitura, partituras de la canción Ajayu de Octavia, 1382

Ajayu de Octavia

Colaboración de Omar Miranda (TAB)

(omarmc4 @ hotmail.com)          (Visitas: 1105)

Ver Ajayu de Octavia en vista para impresión



¿Dudas de cómo es un acorde? Visitar la página cómo formar acordes en guitarra

TRANSCRITO POR: Omar Miranda
5/08/2002

ACORDES:

    E7M   C#m7  Bsus4  Asus2  E    A
e----0-----0-----0------0-----0----0------
G----0-----0-----0------0-----0----2------
B----8-----6-----4------2-----1----2------
D----9-----6-----4------2-----2----2------
A----7-----4-----2------0-----2----0------
E-----------------------------0----0------

INTRO:

   E7M                       C#m7
e----------0-----------0--|----------0-----------0-----|
G----------0-----------0--|----------0-----------0-----|
B------8-----------8------|------6-----------6---------|
D----9-----------9--------|----6-----------6-----------|
A--7-----------7----------|--4-----------4-------------|
E-------------------------|----------------------------|

   Bsus4                     C#m7
e----------0-----------0--|----------0-----------0-----|
G----------0-----------0--|----------0-----------0-----|
B------4-----------4------|------6-----------6---------|
D----4-----------4--------|----6-----------6-----------|
A--2-----------2----------|--4-----------4-------------|
E-------------------------|----------------------------|


VERSO:

   E7M                            C#m7
e----------------0-----------0--|------------0-----------0-----|
G----------------0-----------0--|------------0-----------0-----|
B------8-----------------8------|-------6------------6---------|
D----9-----------------9--------|----6-------------6-----------|
A--7-----------------7----------|--4-------------4-------------|
E-------------------------------|------------------------------|
       He vuelto a   entrar           en tus si__lencios


   Bsus4                       C#m7
e------------0-----------0--|----------0-----------0-----|
G------------0-----------0--|----------0-----------0-----|
B--------4-----------4------|------6-----------6---------|
D----4-------------4--------|----6-----------6-----------|
A--2-------------2----------|--4-----------4-------------|
E---------------------------|----------------------------|
       casi  te  puedo escu____chaaaaar


   E7M                       C#m7
e----------0-----------0--|----------0-----------0-----|
G----------0-----------0--|----------0-----------0-----|
B------8-----------8------|------6-----------6---------|
D----9-----------9--------|----6-----------6-----------|
A--7-----------7----------|--4-----------4-------------|
E-------------------------|----------------------------|
       ya  no   estas no......... es_toy solo

 
   Bsus4                       C#m7
e------------0-----------0--|----------0-----------0-----|
G------------0-----------0--|----------0-----------0-----|
B--------4-----------4------|------6-----------6---------|
D----4-------------4--------|----6-----------6-----------|
A--2-------------2----------|--4-----------4-------------|
E---------------------------|----------------------------|
       pero  aún  huelo   a....ti

   E7M                       C#m7
e----------0-----------0--|----------0-----------0-----|
G----------0-----------0--|----------0-----------0-----|
B------8-----------8------|------6-----------6---------|
D----9-----------9--------|----6-----------6-----------|
A--7-----------7----------|--4-----------4-------------|
E-------------------------|----------------------------| 
   Ah....

   Bsus4                     Asus2                        E
e----------0-----------0--|----------0-----------------|-------0------|
G----------0-----------0--|----------0-----------------|------0-------|
B------4-----------4------|------2-----------2---------|-----1--------|
D----4-----------4--------|----2-----------2-----------|----2---------|
A--2-----------2----------|--0-----------0-------------|---2----------|
E-------------------------|----------------------------|--0-----------|
                                             vuelve a     mi...


   E7M                         C#m7
e------------0-----------0--|-----------0-----------0-----|
G------------0-----------0--|-----------0-----------0-----|
B------8-------------8------|------6-----------6----------|
D----9-------------9--------|----6-----------6------------|
A--7-------------7----------|--4-----------4--------------|
E---------------------------|-----------------------------|
       En el jar_din...............bajo la lluvia

   Bsus4                        C#m7
e-------------0-----------0--|----------0-----------0-----|
G-------------0-----------0--|----------0-----------0-----|
B------4--------------4------|------6-----------6---------|
D----4--------------4--------|----6-----------6-----------|
A--2--------------2----------|--4-----------4-------------|
E----------------------------|----------------------------|
       vuelvo a   verte bai_____lar


   E7M                       C#m7
e----------0-----------0--|----------0-----------0-----|
G----------0-----------0--|----------0-----------0-----|
B------8-----------8------|------6-----------6---------|
D----9-----------9--------|----6-----------6-----------|
A--7-----------7----------|--4-----------4-------------|
E-------------------------|----------------------------|
       Aún re__cuerdo            y   ex__traño

   Bsus4                     C#m7
e----------0-----------0--|----------0-----------0-----|
G----------0-----------0--|----------0-----------0-----|
B------4-----------4------|------6-----------6---------|
D----4-----------4--------|----6-----------6-----------|
A--2-----------2----------|--4-----------4-------------|
E-------------------------|----------------------------|
       tu  sa__bor, tu ca____lor,    tu dolor...
 
   E7M                       C#m7
e----------0-----------0--|----------0-----------0-----|
G----------0-----------0--|----------0-----------0-----|
B------8-----------8------|------6-----------6---------|
D----9-----------9--------|----6-----------6-----------|
A--7-----------7----------|--4-----------4-------------|
E-------------------------|----------------------------| 
    Ah....                    Ah....

   Bsus4                     Asus2                    E
e----------0-----------0--|----------0----------------|-------0------|
G----------0-----------0--|----------0----------------|------0-------|
B------4-----------4------|------2-----------2--------|-----1--------|
D----4-----------4--------|----2-----------2----------|----2---------|
A--2-----------2----------|--0-----------0------------|---2----------|
E-------------------------|---------------------------|--0-----------|
   Ah....                    Ah....          vuelve a    mi...


EN ESTA PARTE INICIAS EL RASGUEO

E7M    C#m7 
Bsus4  C#m7

E7M              C#m7  
  Y las huellas.... de tu sombra
Bsus4               C#m7
  me preguntan donde estas
E7M            C#m7   
  Y este sitio, que es mi vida
Bsus4         C#m7
  a quedado grande para mi
E7M              C#m7   
  Y estas flores y esta tumba
Bsus4            C#m7 
  solo me hablan de ti de ti

E7M       C#m7   
Ah........Ah....
Bsus4     Asus2              E
Ah........Ah........vuelve a mi.

    E                    E        A      Asus2  A               Asus2 A
e|--0--0--0--0--0--0--|--0--0--0--0--0--0--0----0--0--0--0--0--0--0---0-0-|
G|--0--0--0--0--0--0--|--0--0--0--2--2--2--0----2--2--2--2--2--2--0---2-2-|
B|--1--1--1--1--1--1--|--1--1--1--2--2--2--2----2--2--2--2--2--2--2---2-2-|
D|--2--2--2--2--2--2--|--2--2--2--2--2--2--2----2--2--2--2--2--2--2---2-2-|
A|--2--2--2--2--2--2--|--2--2--2--0--0--0--0----0--0--0--0--0--0--0---0-0-|
E|--0--0--0--0--0--0--|--0--0--0--0--0--0-------0--0--0--0--0--0------0-0-|


    E                          E        A      Asus2  A                Asus2
e|--0--0--0--0--0--0--0--0--|--0--0--0--0--0--0--0----0--0--0--0--0--0--0--|
G|--0--0--0--0--0--0--0--0--|--0--0--0--2--2--2--0----2--2--2--2--2--2--0--|
B|--1--1--1--1--1--1--1--1--|--1--1--1--2--2--2--2----2--2--2--2--2--2--2--|
D|--2--2--2--2--2--2--2--2--|--2--2--2--2--2--2--2----2--2--2--2--2--2--2--|
A|--2--2--2--2--2--2--2--2--|--2--2--2--0--0--0--0----0--0--0--0--0--0--0--|
E|--0--0--0--0--0--0--0--0--|--0--0--0--0--0--0-------0--0--0--0--0--0-----|
      ya nada tiene calor       ya nada tiene sa_bor  ya nada tiene ca__lor

    A     E
e|--0--0--0--0--0--0--|
G|--2--2--0--0--0--0--|
B|--2--2--1--1--1--1--|
D|--2--2--2--2--2--2--|
A|--0--0--2--2--2--2--|
E|--0--0--0--0--0--0--|
    sin   ti, sin ti

E        C#m7 
 ya nada tiene calor
         Bsus4    
 ya nada tiene sabor
Bsus4   C#m7      E7M     
 siiiiiiiiin......ti

E7M    C#m7
Bsus4  C#m7
E7M    C#m7
Bsus4  C#m7

E7M       C#m7   
Ah........Ah....
Bsus4     Asus2              E
Ah........Ah........vuelve a mi

E7M       C#m7   
Ah........Ah....
Bsus4     Asus2              E
Ah........Ah........vuelve a mi

E7M       C#m7   
Ah........Ah....
Bsus4     Asus2              E
Ah........Ah........vuelve a mi



ESPERO QUE SEA DE TU AGRADO

CUALQUIR DUDA, CONCEJO O COMENTARIO 
POR FAVOR ESCRIBIR A: omarmc4@hotmail.com



Keywords / Palabras clave: Ajayu, Octavia, letras, letra, acordes, canciones, cancion, grupo, banda, cantante, tablatura, partitura, tocar con guitarra, armónica, teclado, bajo, ejecutar, bajar, mp3, música, chords, lyrics, versión, cover, piano, acrodes, acordes de Ajayu, Octavia

Inicio | Artistas | Recursos | Buscar | AGREGA TU TABLATURA A 10ACORDES | Contacto

www.10acordes.com.ar - 2014© - 2014-07-25 10:25:00