letra, letras, acorde, acordes, tablatura, tablaturas, partitura, partituras de la canción Alma, Corazon y Vida de Embajadores Criollos, 1900

Alma, Corazon y Vida de Embajadores Criollos

Colaboración de Juan (TAB)

(jpcondezo3)          (Visitas: 19990)

Ver Alma, Corazon y Vida de Embajadores Criollos en vista para impresión



¿Dudas de cómo es un acorde? Visitar la página cómo formar acordes en guitarra

ESTA ES LA PRIMERA TRANSCRIPCIÓN QUE HAGO POR SER DEDICADA AL PERÚ, 
NO ES DIFÍCIL TIENEN QUE DARLE EL RITMO
		¡¡¡¡¡¡HÉCHENLE GANAS!!!!!!!

ESTA SOLO ES LA CANCIÓN DE LA PARTITURA, NO ES DE LA GUITARRA. 
POR ESO NO HAY INTRO

ENTONCES, EL TONO QUE HE UTILIZADO ES EN: LA MENOR (Am)
CREO QUE ES EL ORIGINAL

LOS ACORDES DE ACOMPAÑAMIENTO SON:

    Am  Dm   G  F  E
e|--0---1----3--1--0----
B|--1---2----0--1--0----
G|--2---3----0--2--1----
D|--2---0----0--3--2----
A|--0--------2--3--2----
E|-----------3--1--0----

LA PARTE DONDE ESTAN LAS 'X' SIGNIFICA QUE ES APAGADA, CON RITMO DE VALS
ESCÚCHENLA PARA QUE PUEDAN DARSE CUENTA
SI SON NOVICIOS LA MATERIA PUEDEN BORRAR LOS BAJOS (4ta, 5ta y 6ta)

Y DICE...

Recuerdo aquella vez...Que yo te conocí...
e|--------------0--------|-----0-1-3-1-0--5-------|
B|------0-1-0------1x1x--|----------------6---6x6-|
G|----2-------2----2x2x--|----------------7---7x7-|
D|-----------------------|----------------0-------|
A|-(0)----------0--------|--0---------------------|
E|-----------------------|------------------------|

Recuerdo aquella tarde... Pero no me acuerdo ni como te vi 
e|-----0-1-3-0------0-1-0-|---------0------|---------|
B|---3----------1-3-------|-3-0-1-3---0-1--|---------|
G|------------------------|----------------|---------|
D|-0----------------------|-0--------------|--2------|
A|-----------0------------|-------------0--|----3--0-|
E|------------------------|----------------|---------|

LO QUE SIGUE SE REPITE DOS VECES....

  Pero si te dire...       Que yo me enamore....
e|--------------0-------|-----0-1-3-1-0--5-------|
B|------0-1-0------1x1x-|----------------6---6x6-|
G|----2-------2----2x2x-|----------------7---7x7-|
D|----------------------|----------------0-------|
A|-(0)----------0-------|--0---------------------|
E|----------------------|------------------------|

De esos tus lindos ojos de tus labios rojos que no olvidare...
e|-----0-1-3-0------0-1-0-|---------0------|---------|
B|---3----------1-3-------|-3-0-1-3---0-1--|---------|
G|------------------------|----------------|---------|
D|-0----------------------|-0--------------|--2------|
A|-----------0------------|-------------0--|----3--0-|
E|------------------------|----------------|---------|

DESPUES, EL CORO....

Oye esta canción que lleva, alma corazón y vida 
e|-5-5---------5----------|-3-3---------3-------|
B|----5-5----5-----5x5x---|-----3-3----3---3x3x-|
G|---------5-------5x5x---|----------4-----4x4x-|
D|------------------------|---------------------|
A|------------------------|---------------------|
E|-5-----------5----------|-3------------3------|

Esas tres cositas, nada más te doy
e|-1-1---------1---3-1-0------|-------|
B|----1-1----1---1-------0x0x-|-------|
G|---------2-------------1x1x-|-------|
D|----------------------------|-------|
A|----------------------------|-------|
E|-1-----------1--------------|-0-2-4-| <----ESTE ES EL BAJO

Por que no tengo fortuna, estas tres cosas te ofrezco
e|-5-5---------5----------|-3-3---------3-------|
B|----5-5----5-----5x5x---|-----3-3----3---3x3x-|
G|---------5-------5x5x---|----------4-----4x4x-|
D|------------------------|---------------------|
A|------------------------|---------------------|
E|-5-----------5----------|-3------------3------|

Alma corazón y vida y  nada más 
e|-1-1---------1---3-1-0------|--3---|
B|----1-1----1---1-------0x0x-|--2---| <----ESTO SE HACE 
G|---------2-------------1x1x-|--2---|      RAPIDO
D|----------------------------|------|
A|----------------------------|------| 
E|-1-----------1--------------|------| 

LUEGO VIENE...

Alma para conquistarte... corazón para quererte
e|-5-5----------5--------|-5-5---------5----------|
B|-----6-6----6----6x7x--|----5-5----5-----5x5x---|
G|----------7------6x7x--|---------5-------5x5x---|
D|-----------------------|------------------------|
A|-5------------5--------|------------------------|
E|-----------------------|-5-----------5----------|

  Y vida para vivirla junto a ti
e|-4-4---3-4-3---4-4---5--7-5--|--3---|
B|-----------------------------|--2---| <---- IGUAL
G|-4-4---3-4-3---4-4---5--7-5--|--2---|
D|-----------------------------|------|
A|-----------------------------|------|
E|-0-------0-------0--------0--|------|

LUEGO... 

 Alma para conquistarte... corazón para quererte
e|-5-5----------5--------|-5-5---------5----------|
B|-----6-6----6----6x7x--|----5-5----5-----5x5x---|
G|----------7------6x7x--|---------5-------5x5x---|
D|-----------------------|------------------------|
A|-5------------5--------|------------------------|
E|-----------------------|-5-----------5----------|

ESTO VA DISMINUYENDO EL TIEMPO (PARA QUE SE OIGA EL FEELING)

  Y vida para vivirla junto a ti
e|-4-4---3-4-3---4-4---5--7-5~-|-4-5-|
B|-----------------------------|-3-5-| <----ESTO SE HACE
G|-4-4---3-4-3---4-4---5--7-5~-|-4-5-|      RAPIDO
D|-----------------------------|---7-|
A|-----------------------------|---7-|
E|-0-------0-------0--------0~-|---5-| 

                          FIN

SI LA SACARON MÁNDENME UN MAIL POR SIACA
Y SI TIENEN DUDAS O RECOMENDACIONES MÁNDENME UN MAIL A: 
jpcondezo3@hotmail.com

DEDICADA A QUIEN RECIBE MI ALMA, CORAZON Y VIDA  '.JR.'



Keywords / Palabras clave: Alma, Corazon y Vida, Embajadores Criollos, letras, letra, acordes, canciones, cancion, grupo, banda, cantante, tablatura, partitura, tocar con guitarra, armónica, teclado, bajo, ejecutar, bajar, mp3, música, chords, lyrics, versión, cover, piano, acrodes, acordes de Alma, Corazon y Vida, Embajadores Criollos

Inicio | Artistas | Recursos | Buscar | AGREGA TU TABLATURA A 10ACORDES | Contacto

www.10acordes.com.ar - 2014© - 2014-09-19 02:25:56