letra, letras, acorde, acordes, tablatura, tablaturas, partitura, partituras de la canción Ave de cristal de Kjarkas, 3851

Ave de cristal de Kjarkas

Colaboración de Ariel C. Pampa Ch. (TAB)

(astron_ariel @ msn.com)          (Visitas: 33721)

Ver Ave de cristal de Kjarkas en vista para impresión



¿Dudas de cómo es un acorde? Visitar la página cómo formar acordes en guitarra

Ritmo: Chuntunqui 
Autor: Gonzalo Hermosa
Tono Original de la grabación: Dm o Rem

    Esta canción se la dedico a Martha <<algunos amores solo suceden para 
enseñarnos a amar, no olvides que habrá otra persona que te ame>>….
Gracias por todo...

    No se lo pierdan el DVD de los Kjarkas, próximamente el 10 de julio, del
2004 esta super...  con funciones de karaoke, las opciones en varios idiomas 
y ademas en tema aparte canciones nuevas ¡que mas se puede pedir!....



    Basta de bla bla ahora nos vamos a las especificaciones de la canción..
el signo ~ significa alargar el sonido, las demas son simbolo bien conocidos...
y si no las conoces averigua hombre averigua...

    Necesitamos capo en el 5º traste o solo toquen la canción en Rem 
normal con las notas de las demás colaboraciones de esta canción, yo 
les recomiendo usar capo porque les ayudara en las partes de punteada... 
por fin hagan lo que les venga en gana, pero tóquenla y ojo que les salga 
bien... o sino mejor no la toquen.... no vaya a ser que me estén sacando 
una nueva versión y eso se llama plagio.....

Arpegios: Esto lo de los arpegios va por toda la canción...

e |------------------|      P = Pulgar,     
B |---------○a-------|      i = Índice,     
G |-------○m--○m-----|      m = Medio  
D |----○i-------○i---|      y por último (no nos hagamos) 
A |-○p---------------|      obviamente  a = Anular    
E |------------------|      

Por si no lo sabían...(para los recién iniciados)

Ahora si empezaremos... la canción va así... 

Intro en guitarra: 

e --------------|
B -------6------|
G -----7---7----|
D ---7-------7--|
A -5------------|
E --------------| (esto se toca 4 veces en la versión en vivo, para        
                   la grabación en estudio son solo 2 veces)
 
-5~----------|---------5-6-8~-6-6-5-6~---|-10~--8-8-7-8~---| 
----8-8-6-6~-|---5-6-8-------------------|-----------------|
-------------|-7-------------------------|-----------------|
-------------|---------------------------|-----------------|
-------------|---------------------------|-----------------|
-------------|---------------------------|-----------------|

-8-10-12-12-10-10-8-8h10-6-6h8-5-5h6p5---5-6-5~--|
---------------------------------------8---------|
-------------------------------------------------|
-------------------------------------------------|
-------------------------------------------------|
-------------------------------------------------|

---------------------------------|
-8-6-6/10~--8-6-6/11~---10-11-5--|
---------------------------------|
---------------------------------|
---------------------------------|
---------------------------------|


 Am                         Dm
No se acaba el mundo, cuando un amor se va,
 F                      Dm         E7
no se acaba el mundo y se derrumbaráaaa,
 Am                          Dm
Si fue verdadero, tras sus hueeellas volverá,
 G                       F           E7
si no fue sincero, otro lo reemplazaráaaa.

 Am                         Dm
No se acaba el mundo, cuando un amor se va,
 F                         Dm         E7
no se acaba el mundo y no se derrumbaráaaa,
 Am                                Dm
No hay lluvia en el alma, que no acabe con un sol,
G                             F          E7          Am
y se limpie el cielo, cuando deja de lloveeer de lloveeeer...


Am           Dm             G              C
Y es el corazóooon, como un aaaave de cristal,
                   F        Dm                  F          E7
que es tan frágil deeee rompeeeer, tan difícil deeee entendeeeer...
Am           Dm              G                  C
Y es el corazóooon, tomo el deeeestino taaan crueeeel,
             F        Dm                 F        E7
tan difícil deeee torceeeer y tan fácil deeee perder...
        Am  G              Am
es el amor..       es el amor...


Intermedio y final en Zampoña arreglada para guitarra:

e -6-5~--5~--10-10-8-8-6-6-5-6-8-6~---|-6-8-12-12~--10-10~--8-8---5-6-5~--|
B ------------------------------------|-------------------------8---------|
G ------------------------------------|-----------------------------------|
D ------------------------------------|-----------------------------------|
A ------------------------------------|-----------------------------------|
E ------------------------------------|-----------------------------------|

-----5~--6-5~--5~--10-10-8-8-6-6-5-6-8-6~--|
-8-6---------------------------------------|
-------------------------------------------|
-------------------------------------------|	
-------------------------------------------|
-------------------------------------------|

6-8-15-15~--13-13-12-12-10-10-8-8---5-6-5~--|---------------12-10-12~--|
----------------------------------8---------|-8-6-10~------------------|
--------------------------------------------|---------9-7-9~-----------|
--------------------------------------------|--------------------------|
--------------------------------------------|--------------------------|
--------------------------------------------|--------------------------|

Ojo: Esta parte es solo para el final de la canción

e ---5----|
B ---6----|
G ---7----|
D ---7----|
A ---5----|
E ---5----| ... fin ...

	
Se repite toda la canción completa y termina con la parte en zampoña más 
la partecita adjunta al final....

    Peticiones, correcciones, consultas, comentarios, consejos, reclamos, 
pasiones, chismes, desamores, intrigas, declaraciones, 
reconocimientos de hijos...jejeje, etc. 
mi e-mail astron_ariel@msn.com.



Keywords / Palabras clave: Ave de cristal, Kjarkas, letras, letra, acordes, canciones, cancion, grupo, banda, cantante, tablatura, partitura, tocar con guitarra, armónica, teclado, bajo, ejecutar, bajar, mp3, música, chords, lyrics, versión, cover, piano, acrodes, acordes de Ave de cristal, Kjarkas

Inicio | Artistas | Recursos | Buscar | AGREGA TU TABLATURA A 10ACORDES | Contacto

www.10acordes.com.ar - 2014© - 2014-09-19 06:28:36