letra, letras, acorde, acordes, tablatura, tablaturas, partitura, partituras de la canción back in black de acdc, 41917

back in black de acdc

Colaboración de esta buena la tablatura (TAB)

(darkness_metalero @ hotmail.com)          (Visitas: )

Ver back in black de acdc en vista para impresión



¿Dudas de cómo es un acorde? Visitar la página cómo formar acordes en guitarra

-0-0--0---3-0----------
-0-3--0-------3-0------
-1-2--0----------$2-0-- 
-2-0--2---------------- 
-2--------------------- 
-0---------------------  

-0-0--0----------------
-0-3--0----------------
-1-2--0---------------- 
-2-0--2---------------- 
-2-------2-2-2-2------- 
-0--------4-5-6-7------

es namas es intro pero aguanta para apantayar a sus compas NOTA EN LA PRIMERA PARTE DENDE ESTA EL SIMBOLO DE $ LEDAN EFECTO BAJANDO LA CUERDA LES VA SALIR MEJOR DONDE ESTA EL 2 
sas pues a pegarle a la lira



Keywords / Palabras clave: back in black, acdc, letras, letra, acordes, canciones, cancion, grupo, banda, cantante, tablatura, partitura, tocar con guitarra, armónica, teclado, bajo, ejecutar, bajar, mp3, música, chords, lyrics, versión, cover, piano, acrodes, acordes de back in black, acdc

Inicio | Artistas | Recursos | Buscar | AGREGA TU TABLATURA A 10ACORDES | Contacto

www.10acordes.com.ar - 2014© - 2014-11-21 12:57:42