letra, letras, acorde, acordes, tablatura, tablaturas, partitura, partituras de la canción Bajo la rambla de Los Perros, 4216

Bajo la rambla de Los Perros

Colaboración de Luciano Carrizo

(jose_larralde @ ciudad.com.ar)          (Visitas: 19199)

Ver Bajo la rambla de Los Perros en vista para impresión



¿Dudas de cómo es un acorde? Visitar la página cómo formar acordes en guitarra

INTRO: F

           F
Cuando el sol no está
                  C7 
y la tarde cae al fin,
       
quiero olvidar los momentos
                    F
que en la rambla pasé.


         Bb            F 
Tu me besabas y me decias:
                
siempre te amaré,
C7                 F   Bb   F
siempre seras mi amor.


              Dm 
Me encuentro solo, sin un amor.
              C 
Me encuentro solo, en la rambla estoy. 
              Dm
Me encuentro solo, todos tienen su amor.
              C
Me encuentro solo, ya no se que hacer.
              Dm    C   
Me encuentro solo, solo.

[PUNTEO]
 
       f
No podré encontrar jamás 
             C7
dos que se amen,
         
pues mi corazón 
                F
mucho ha de sufrir. 
         Bb 
Tu me recordaras
           F
que me querías, 
      
me juraste que 
    C7           F    Bb    F
de mí siempre serias.  


              Dm
Me encuentro solo, sin un amor.
              C
Me encuentro solo, en la rambla estoy.
              Dm
Me encuentro solo, todos tienen su amor.
              C
Me encuentro solo, ya no se que hacer.
              Dm    C
Me encuentro solo, solo.



e---------------------------------------------------
B---------------------------------------------------
G------------5--------------------------------------
D----3-5-5s7---7-5-3-------2-3---3-3-2--------------
A--3-------------------3-5-------------5-5--7-7-----
E---------------------------------------------------

---------------------------------------------------]
---------------------------------------------------]
---3-----------------------------------------------]
-----5-------5-7--8-7-5--8-7-5--8-7-5--3-2---------]
-------------------------------------------5-3-----]
---------------------------------------------------]



         Bb           F 
Tu me besabas y me decias:
                 
siempre te amaré,
C7                 F   Bb   F
siempre serás mi amor.



              Dm 
Me encuentro solo, sin un amor.
              C 
Me encuentro solo, en la rambla estoy.
              Dm
Me encuentro solo, todos tienen su amor.
              C
Me encuentro solo, ya no se que hacer.
              Dm   B        C - F - [PUNTEO] Final  
Me encuentro solo, solo.




Punteo:
e--------------------]
B--------------------]
G------------5-------]
D----3-5-5s7---7-5-3-]
A--3-----------------]
E--------------------]

La otra transcripción de esta canción esta mal y encima los punteos tambien
están mal, y visto esto me dediqué a sacar mi propia transcripción porque la
que había apestaba, y asi no sirve.



Keywords / Palabras clave: Bajo la rambla, Los Perros, letras, letra, acordes, canciones, cancion, grupo, banda, cantante, tablatura, partitura, tocar con guitarra, armónica, teclado, bajo, ejecutar, bajar, mp3, música, chords, lyrics, versión, cover, piano, acrodes, acordes de Bajo la rambla, Los Perros

Inicio | Artistas | Recursos | Buscar | AGREGA TU TABLATURA A 10ACORDES | Contacto

www.10acordes.com.ar - 2014© - 2014-07-29 17:31:12