letra, letras, acorde, acordes, tablatura, tablaturas, partitura, partituras de la canción Balada para adelina de Música Clasica, 4270

Balada para adelina de Música Clasica

Colaboración de ali galvan ponce (TAB)

(taur_17 @ hotmail.com)          (Visitas: 74848)

Ver Balada para adelina de Música Clasica en vista para impresión



¿Dudas de cómo es un acorde? Visitar la página cómo formar acordes en guitarra

esta cancion va dedicada para la mujer ke amo y me tiene loco 
'Diana Cepeda' de la UAT c. kimicas qfb reynosa aztlan.
 con esta rola tan romantica te digo cuanto 'te amo' 


  4 veces     4 veces
1-----------/-----------/----------------------------------
2-------3---/------5----/--5--5--------5---6-----6---------
3-----5-----/--------5--/----------------------------------
4---5-------/----5------/--5--5--------5---7-----7---------
5-3---------/--3--------/--3--------3----------5------5----
6-----------/-----------/---------3-----------------5------

1-----------------3----3-------3-5----------------------------
2---6-6-6-6-6-6---------------------5-5-5-5-----5--5---------
3-----------------4----4-------4----5-5-5-5------------------
4---7-7-7-7-7-7---------------------5-5-5-5-----5--5--------
5-----------------------------------3-----------3-------3----
6--------------------3-----3-3---------------3--------3-----

1--------------------------------------------3----3-----3-5----
2--5-5-5-5-5-5--6----6--------6-6-6-6-6-6---------------------5-
3--------------------------------------------4----4-----4-----5-
4--5-5-5-5-5-5--7----7--------7-7-7-7-7-7---------------------5-
5------------------5-------5----------------------------------3-
6------------------------5----------------------3----3-3-------


1-----------------------5---7---8----------0---2---3--------
2---5-5-5-------------5---5---5---5------0---0---0---0---------1-
3---5-5-5----------------------------------------------------2---
4---5-5-5--------------------------------------------------3-----
5------------3----------------------------------------------------
6---------------7--5-------------------0-----------------1-------

1-----------------------------------5---7 --8---------0---2---3-------
2------3-----5-------5------------5---5---5---5-----0---0---0---0------
3------4-------5------------------------------------------------------
4------5---------5--------------------------------------------------
5---------3--------------3------------------------------------------
6---3----------------------7--5-------------------0------------------

                   4 veces     4 veces     4 veces
1----------------/-----------/----------/---------3-/-----
2--------------1-/--------1--/--------3-/-------3---/-----
3-------2----2---/------2----/-----3----/-----4-----/-----
4-----3---3------/----3------/---5------/-----------/-----
5----------------/-----------/----------/-----------/-----
6--1-------------/--1--------/-3--------/--3--------/-----

  se repite todo nuevamente y  este es el final

1---------------1--3--------0--------
2--5----------1-----------1---------
3--5--------2-----------0---------
4--5-------------------------------
5------------------------------------
6--3----1--------------------------
  espero ke les guste y si kieren mas de diblasio escribanme 
y se las mando bye



Keywords / Palabras clave: Balada para adelina, Música Clasica, letras, letra, acordes, canciones, cancion, grupo, banda, cantante, tablatura, partitura, tocar con guitarra, armónica, teclado, bajo, ejecutar, bajar, mp3, música, chords, lyrics, versión, cover, piano, acrodes, acordes de Balada para adelina, Música Clasica

Inicio | Artistas | Recursos | Buscar | AGREGA TU TABLATURA A 10ACORDES | Contacto

www.10acordes.com.ar - 2014© - 2014-10-21 13:25:48