letra, letras, acorde, acordes, tablatura, tablaturas, partitura, partituras de la canción Barcelona Nights de Ottmar Liebert, 4349

Barcelona Nights de Ottmar Liebert

Colaboración de partdeltormen (TAB)

(sr_p1 @ hotmail.com)          (Visitas: 13687)

Ver Barcelona Nights de Ottmar Liebert en vista para impresión



¿Dudas de cómo es un acorde? Visitar la página cómo formar acordes en guitarra

Espero les guste la cancion que saque de oido
tarde como 3 horas pero por fin esta disfruten de ella
sugerencias a mi correo
saludos a los del CUCEI y a JXC del Chino (mariachi)

sacada del siguient disco

Higher Octave
Music

Ottmar Liebert
Nouveau Flamenco
Barcelona Nights

transcripción Partdeltormen

e-8-5--5-7-8-7-5-7------5-7-5---8-5--5-7-8-7-5-7-
B------------------8--8-------8------------------
G------------------------------------------------
D------------------------------------------------ X2
A------------------------------------------------
E------------------------------------------------

  Am               G            Am             G 
e-8-5--5-7-8-7-5-7------5-7-5---8-5--5-7-8-7-5-7-
B------------------8--8-------8------------------
G------------------------------------------------
D------------------------------------------------
A------------------------------------------------
E------------------------------------------------

            Am               G            Am               G
e-10-8-7-8--8-5--5-7-8-7-5-7------5-7-5---8-5-----7-8-7----10-8-7-----------7-
B----------------------------8--8-------8------10-------10--------10-8-8-10---
G-----------------------------------------------------------------------------
D-----------------------------------------------------------------------------
A-----------------------------------------------------------------------------
E-----------------------------------------------------------------------------

  Am               G            Am             G 
e-8-5--5-7-8-7-5-7------5-7-5---8-5--5-7-8-7-5-7-
B------------------8--8-------8------------------
G------------------------------------------------
D------------------------------------------------ X2
A------------------------------------------------
E------------------------------------------------

  Dm         Am       Dm          Am    E7             Am       E7              Am
e-----------------------------------------7-8-7----7-8-10-7-8-7----8-7----7-10-7-8-
B--------------------------8-----------10-------10--------------10-----10----------
G-7-9-10-9-7----------9-10---10-9-7-9----------------------------------------------
D------------10-9-10---------------------------------------------------------------
A----------------------------------------------------------------------------------
E----------------------------------------------------------------------------------

  Am     E7.........
e----------------------------------------------------------------------------------
B---------------------------------------8------------------------------------------
G-9-10-9-7-9--9-10-9-7-9--9-10-9-7-9-10---10-9-------7-9-10-9----------------------
D-----------------------------------------------9-10----------10-7-7---10-9-7----7-
A-----------------------------------------------------------------------------10---
E----------------------------------------------------------------------------------

  Am     E7.........
e--------------------------------------------------------------------
B-------------8--------------------------------------8-10-8----------
G----7-9-10-9---10-9-7-10-9-7------7------------9-10--------10-9-7-9-
D-10--------------------------10-9---10-9-10-------------------------
A--------------------------------------------------------------------
E--------------------------------------------------------------------

  Am     E7.........
e---------------------------------7-8-7----7-7-8-10-8-7-8---------------------
B------8---------------------8-10-------10---------------------------8-10-8---
G-9-10---10-7-10-9-7-9----10-------------------------------------7-9--------9-
D-----------------------------------------------------------7-10--------------
A-----------------------------------------------------------------------------
E-----------------------------------------------------------------------------

e-8-5--5-7-8-7-5-7------5-7-5---8-5--5-7-8-7-5-7-
B------------------8--8-------8------------------
G------------------------------------------------
D------------------------------------------------ X2
A------------------------------------------------
E------------------------------------------------

e-7-8-10-8-7-8-7----8-5--5-7-8-7-5-7------5-7-5---8-5--5-7-8-7-5-7-
B------------------------------------8--8-------8------------------
G------------------------------------------------------------------
D------------------------------------------------------------------
A------------------------------------------------------------------
E------------------------------------------------------------------

e-8-5--5-7-8-7-5-7------5-7-5---8-5-----7-8-7-8-10-8-7----7-8-7---------7-
B------------------8--8-------8------10----------------10-------10-8-10---
G-------------------------------------------------------------------------
D-------------------------------------------------------------------------
A-------------------------------------------------------------------------
E-------------------------------------------------------------------------

e-----------------------------------------7-8-7----7------7-8-7----7----7-7-7-7-
B---------------------------8----------10-------10-----10-------10--------------
G-7-9-10-9-7-----------9-10---10-9-7-9------------------------------------------
D------------10--9-10-----------------------------------------------------------
A-------------------------------------------------------------------------------
E-------------------------------------------------------------------------------
                        
e-7-7--7-7-8-7-8----7--------8-10-12---8-10------8-10-8------8-10-12---10-8------8-10-8-
B---------------------10--12----------------12------------12----------------12----------
G---------------------------------------------------------------------------------------
D---------------------------------------------------------------------------------------
A---------------------------------------------------------------------------------------
E---------------------------------------------------------------------------------------

e------------------------------------------------------------------------------------
B---------------8------------------------------8--------------------------8----------
G------7-9-10-9---10-9-7-10-9---------7-9-10-9---10-9-7-9--------7-9-10-9---10-9-7-9-
D-9-10---------------------------9-10-----------------------9-10---------------------
A------------------------------------------------------------------------------------
E------------------------------------------------------------------------------------

e----------------------------------------------------------------------------
B---------------8------------------------------------------------------------
G------7-9-10-9---10-9-7-10-9------9-10-9-------------7------9-10-9---7------
D-9-10--------------------------10----------10-9---10---10--------------10-9-
A----------------------------------------------------------------------------
E----------------------------------------------------------------------------

e---------------------8-5--5-7-8-7-5-7------5-7-5---8-5--5-7-8-7-5-7-
B--------------------------------------8--8-------8------------------
G----7-----------9-10-9----------------------------------------------
D-10---10-9-10-------------------------------------------------------
A--------------------------------------------------------------------
E--------------------------------------------------------------------

e-8-5--5-7-8-7-5-7------5-7-5---8-5--5-7-8-7-5-7-
B------------------8--8-------8------------------
G------------------------------------------------
D------------------------------------------------ X3
A------------------------------------------------
E------------------------------------------------

e-----------------------------------------------------------------------------
B-----------------------------8------------------------------8----------------
G-7-9-10-9-7-------------9-10---10-9-7-9---9-10-9---7-9-10-9---9---9-10-9-7-9-
D------------10---9-10--------------------------------------------------------
A-----------------------------------------------------------------------------
E-----------------------------------------------------------------------------

e--------------------7-8s10-8-7-8---7-8-10-7-----------------------------------
B---------------8-10---------------------------10-8-8---10-8-8s5---------------
G-9-10-9-7-9-10---------------------------------------------------(9-10-9-7)x4-
D------------------------------------------------------------------------------
A------------------------------------------------------------------------------
E------------------------------------------------------------------------------

e--------------------------------------------------------------------
B------8----------------------------8--------------------------------
G-9-10---10-9-7-(9-10-9-7)x6 --9-10---10-(9-10-9-7)x3 ---7-----------
D----------------------------------------------------------10-9-10-9-
A--------------------------------------------------------------------
E--------------------------------------------------------------------

e-----------------------------------------------------------------7-8-7---------
B------------------------------------------------------------8-10-------10-8-10-
G--------7-9-10-9-7-------------------9-10-9-7-9-10-9-7-9-----------------------
D-7-9-10------------10-9-10-9-7-9-7---------------------------------------------
A-------------------------------------------------------------------------------
E-------------------------------------------------------------------------------

e---------------------------------
B---------------------------------
G-9-9-9-10-9-7---9-9-9-9-10-9-7-9-
D---------------------------------
A---------------------------------
E---------------------------------



Keywords / Palabras clave: Barcelona Nights, Ottmar Liebert, letras, letra, acordes, canciones, cancion, grupo, banda, cantante, tablatura, partitura, tocar con guitarra, armónica, teclado, bajo, ejecutar, bajar, mp3, música, chords, lyrics, versión, cover, piano, acrodes, acordes de Barcelona Nights, Ottmar Liebert

Inicio | Artistas | Recursos | Buscar | AGREGA TU TABLATURA A 10ACORDES | Contacto

www.10acordes.com.ar - 2014© - 2014-08-22 22:14:36