letra, letras, acorde, acordes, tablatura, tablaturas, partitura, partituras de la canción beat it de michael jackson, 42155

beat it de michael jackson

Colaboración de es una buena rola que saque a puro oido haber si les gusta (TAB)

(danyescobarm @ hotmail.com)          (Visitas: )

Ver beat it de michael jackson en vista para impresión



¿Dudas de cómo es un acorde? Visitar la página cómo formar acordes en guitarra

e----------------------------------------------
b----------------------------------------------
g----------------------------------------------
d-------3-0-0-2-0------------------------------------
a-----2-----------3-3-----------------------------
e-0-3----------------------------------------------

e-----------------------------------------------
b-----------------------------------------------
g-----------------------------------------------
d-------3-0-0-2-0------------------------------------
a-----2-----------3-------------------------------
e-0-3---------------------------------------------



Keywords / Palabras clave: beat it, michael jackson, letras, letra, acordes, canciones, cancion, grupo, banda, cantante, tablatura, partitura, tocar con guitarra, armónica, teclado, bajo, ejecutar, bajar, mp3, música, chords, lyrics, versión, cover, piano, acrodes, acordes de beat it, michael jackson

Inicio | Artistas | Recursos | Buscar | AGREGA TU TABLATURA A 10ACORDES | Contacto

www.10acordes.com.ar - 2014© - 2014-04-17 15:11:04