letra, letras, acorde, acordes, tablatura, tablaturas, partitura, partituras de la canción Canción del Mariachi de los Lobos, 5767

Canción del Mariachi de los Lobos

Colaboración de Omar Vidal (TAB)

(ometal666 @ hotmail.com)          (Visitas: 8661)

Ver Canción del Mariachi de los Lobos en vista para impresión



¿Dudas de cómo es un acorde? Visitar la página cómo formar acordes en guitarra

Rola: Canción del Mariachi
Artista: Antonio Banderas & Los Lobos
Álbum: Soundtrack Original de Desperado
Tabulado por: Omar Vidal


  Este es el SOLO de la canción y va más o menos así:

             Em             B                            Em            
e|--7------7-12-7-----7---7-11-7-----7---7-11-7----7---7-12-7----7---7-12-7--
B|------10---------10-------------10------------10------------10-------------
G|---------------------------------------------------------------------------
D|---------------------------------------------------------------------------
A|---------------------------------------------------------------------------
E|---------------------------------------------------------------------------

              B                          Em
   ----7----7-11-7----7---11----7------7----12----7--12----7--12----7--
   -10-------------10--------10-----10---------10-------10-------10----
   --------------------------------------------------------------------
   --------------------------------------------------------------------
   --------------------------------------------------------------------
   --------------------------------------------------------------------


   esta es la parte un 'poquito rápida', practica


     B                         Em              B         Em
   --10-8-10-8-7-8-7-5-7-5---5---------------------
   ------------------------8---8-7-8-5-3-1-3-1-0---
   ------------------------------------------------  la parte que va
   ------------------------------------------------  despues de este riff
   ------------------------------------------------  no la he desifrado aún.
   ------------------------------------------------  ayúdenme con eso!!!!!!

         B            Em           B                  Em
   ------------------------------------------7-5-3-2--0--|
   --0-0-4-5-7----0-0-5-7-8----0-0-4-5-7---4-8-7-5-4--0--|
   ---------------------------------------------------0--|
   ---------------------------------------------------2--|
   ---------------------------------------------------2--|
   ---------------------------------------------------0--|


   (fin)

Comentarios, dudas o correciones aquí está mi e-mail:

Omar Vidal -
  - ometal666@hotmail.com            Viva la Guitarra | Paz



Keywords / Palabras clave: Canción del Mariachi, los Lobos, letras, letra, acordes, canciones, cancion, grupo, banda, cantante, tablatura, partitura, tocar con guitarra, armónica, teclado, bajo, ejecutar, bajar, mp3, música, chords, lyrics, versión, cover, piano, acrodes, acordes de Canción del Mariachi, los Lobos

Inicio | Artistas | Recursos | Buscar | AGREGA TU TABLATURA A 10ACORDES | Contacto

www.10acordes.com.ar - 2014© - 2014-08-22 02:34:35