letra, letras, acorde, acordes, tablatura, tablaturas, partitura, partituras de la canción Cavatina de Música Clasica, 6498

Cavatina de Música Clasica

Colaboración de Jorge Vargas Johnston (TAB)

(jorvarjohn_61 @ hotmail.com)          (Visitas: 12986)

Ver Cavatina de Música Clasica en vista para impresión



¿Dudas de cómo es un acorde? Visitar la página cómo formar acordes en guitarra


                   X
e --------0--4--5-||--7----------------7--------------------------9-----------------
B ----------------||----------5-----------------9-----------10-12--------10---------
G ----------------||-------4-----4-----------8-----8------------------9------9------
D ----------------||----6-----------6-----6-----------6-----------11------------11--
A ----------------||-------------------6--------------------------------------------
E ----------------||--0----------------------------------9--------------------------


e --------------------------7-9------------------------------7-----7--------------------
B ------------10---------10---------10-------------------------10-----------9-----------
G ---------9------9--------------9------9--------------8-----------------8-----8--------
D -----11------------11-------7------------7--------7-----7-----------9-----------9-----
A --9--------------------------------------------9-----------9--------------------------
E -----------------------7--------------------7--------------------0--------------------


e -----------------5-p-4--4-----------------2-----------------0--2----------------------
B ---------------------------------2-----------------2--------------------0-------------
G -----------3------------------2-----2-----------2-----2--------------0-----0----------
D --------4-----4------------2-----------2-----4-----------4--------0-----------0-------
A -----6------------------0-----------------5-------------------------------------------
E --0------------------------------------------------------------3----------------------


e --0-----------------0-----------------------2-----------0---------------0---0-4-7-11--
B -----------0-----------------0--------------------4-------------------0---0-----------
G --------0-----0-----------2-----2-----------2--4--2-----2-----1-----1-----------------
D -----2-----------2-----4-----------4-----4-----------4-----4-----2--------------------
A --3-----------------2-----------------2-----------------------------------------------
E --------------------------------------------------------0-----------------------------



e -12-----------12---------11-p-9--9--11-h-12--11----------7-------9-7--5---------------
B --------9------------9--------------------------11-------------9---------------2------
G ------9---9--------9---9---------------------------11--------8--------------2-----2---
D ----9-------9----9------------------------------------9----9-------------2----------2-
A --9------------9----------9-----------------------------------------------------------
E ---------------------------------0-----------------------7------------2---------------



e --------7-----------------------------------------0--2--4---------------5-------------
B -10-----------7-----9--------------------------3-----------------2--------------7-----
G -----------8-----------------8--------------4-----------------2----2---------5----5---
D --------7-----7-----------9-----9--------2-----------------2---------2----7---------7-
A -----9-----------9-----7-----------7--------------------0---------------5-------------
E --7-----------------0-----------------0-----------------------------------------------



e --6-----------------7-----------------7------------12----------------12-8-8-10-10-7---
B -----------7-----------0-----7-----0----0---7---0--------0----------------------------
G --------6-----6-----------8-----8---------7---7-------0-----9--0----------------------
D -----8-----------8--------------------0---------------------------0--10---------------
A --7-----------------6------------------------------------------------9----------------
E ----------------------------------------------------8----------------7----------------


e --7-8-8---7-8--12---------------------------------------------2----------------2------
B -----------------------------------------------------------2-----2-----------3--------
G ----------------9--5-5-7-7-4-4-5------------------------------------2-----------------
D ---------------------------------7-4-2------------------2--------------2---4------2-4-
A ---------------------------------------3-2-----------1-------------------2------------
E -------------------------------------------5-3-2-3-5---------------------------2------


e ------------------------------------------------3-----------------------------0-------
B ------------3--------------------------------4-----4------------------------0---0-----
G ---------3-----3--------------------------3-----------3---------------------------0---
D ------3-----------3--3-----1-----1--3--5-----------------8-----6---6--8-9-----------2-
A --5---------------------1-----1--------4--------------------6----6---------7----------
E ----5----------------2-----2-----------------------------7--------------4-------------

e ----------0----------------------------------------------------------------------------
B -------0-----0--------------5--------------------------------------------2-0-----------
G -4-----------------------4-----4-----2--0--------2-----------------2-------------1-----
D ----------------2-----2-----------2-----------1-----1--2--------1----1---------0---0---
A ----7--------------------------------------2-----------------2---------2-----2-------2-
E -4-----------------4--------------------2-----------------2----------------0-----------


												   *
e ------------------------------------------------0------------------------------------------0-4-5-||
B -------------2--0-----------------------------0---0----------4-----------------------0---0-------||
G -------2--------------1--------6------------2-------2----2-------0------2---1-----1----1---------||
D -----1---1----------0---0--------7-6-4-2--2----------------4-------2--2---4---1-2----------------||
A ---2-------1------2-------2--0-------------------------2-------1---------------------------------||
E -2--------------0-------------------------2-----------------------------0------------------------||


REPETIR DEL X al *


e --4-----------------------------------2-----------------0-----------------------------------
B -----------2-----------------2-----------------0-----------------0--------5-----------------
G --------2-----2-----------2-----2-----------0-----0-----------0-----0--------------2--------
D -----2-----------2-----4-----------2-----0-----------0-----2-----------2--------2-----2-----
A --0-----------------5-----------------------------------3--------------------4-----------4--
E --------------------------------------3-----------------------------------2-----------------


e -------2--------0--------------------------0--4--7--11---12--------------2-4-2---------------|
B -------------4--------------------0-----0------------9--------4---5---5---------5------------|
G ----------------2-----1--------1-----1---------------9--------2-------2------------2--4--16--|
D ----4--2--4--2-----4-----1--2------------------------9--------2-------4------------4--6------|
A -2------------------------------------------------------------4-------2----------------------|
E ----------------0------------------------------------9--------2--------------------0---------|



Keywords / Palabras clave: Cavatina, Música Clasica, letras, letra, acordes, canciones, cancion, grupo, banda, cantante, tablatura, partitura, tocar con guitarra, armónica, teclado, bajo, ejecutar, bajar, mp3, música, chords, lyrics, versión, cover, piano, acrodes, acordes de Cavatina, Música Clasica

Inicio | Artistas | Recursos | Buscar | AGREGA TU TABLATURA A 10ACORDES | Contacto

www.10acordes.com.ar - 2014© - 2014-07-31 08:07:15