letra, letras, acorde, acordes, tablatura, tablaturas, partitura, partituras de la canción Colegiala de Los Askis, 7222

Colegiala de Los Askis

Colaboración de Oscar Olea Mejía (TAB)

(oscar_ole @ hotmail.com)          (Visitas: 2926)

Ver Colegiala de Los Askis en vista para impresión



¿Dudas de cómo es un acorde? Visitar la página cómo formar acordes en guitarra

(INTRO)


E|-------1---0-0------------0--0-1-0---------1---0-0-------
B|------3-3-----3-1--------1-1------3-------3-3-----3-1----
G|-2-2-2-------------0-0-0-------------2-2-2---------------
D|---------------------------------------------------------
A|---------------------------------------------------------
E|---------------------------------------------------------

E|-------0---0-1-0----------1-------------------1----------
B|------1-1-------3--3-3-1-3-1-3-3-1-3---3-3-1-3-1-3-3-1-3-
G|-0-0-0---------------------------------------------------
D|---------------------------------------------------------
A|---------------------------------------------------------
E|---------------------------------------------------------

RIFF 1

E|-------0------------------------
B|------1-1-----------------------
G|-0-0-0--------------------------
D|--------------------------------
A|--------------------------------
E|--------------------------------

RIFF 2

E|--------1-----------------------
B|-3-3-1-3-1-3-3-1-3--------------
G|--------------------------------
D|--------------------------------
A|--------------------------------
E|--------------------------------

RIFF 3

E|--------------------------------
B|-3------------------------------
G|--5-2---------------------------
D|---5--5-3-----------------------
A|-------5-5-3-5------------------
E|--------------------------------


  Dm                     C     RIFF 1
Siempre en el salón de clases
  C                  Dm    RIFF 2
Pierdo la concentración
Dm                   C       RIFF 1
No me importan las materias
 C             Dm   RIFF 2
Ni la calificación.




 Dm                    C    RIFF 1
Tu me diste el primer beso
 C                 Dm   RIFF 2
Tu primer beso de amor
 Dm               C    RIFF 1
Tu inocencia colegiala
 C                 Dm   RIFF 3
Tu promedio es el mejor

     C
Colegiala
                          Dm
Tu tarea es quererme colegiala
     C
Colegiala
                              Dm
Me metiste en tu horario de amor

C
Colegiala
                          Dm
Tu tarea es quererme colegiala
     C
Colegiala
                              Dm  RIFF 3
Me metiste en tu horario de amor

(INTRO)

 Dm                C      RIFF 1
Tu aprobabas tus materias
 C                 Dm  RIFF 2
Yo soñaba con tu amor
Dm                   C    RIFF 1
Era el último en la clase
 C                Dm  RIFF 3
Pero no en tu corazón


C
Colegiala
                          Dm
Tu tarea es quererme colegiala
     C
Colegiala
                              Dm
Me metiste en tu horario de amor

C
Colegiala
                          Dm
Tu tarea es quererme colegiala
     C
Colegiala
                              Dm
Me metiste en tu horario de amor


E|-------------------------------------------------------
B|-------------------------------------------------------
G|-------------------------------------------------------
D|-------------------------------------------------------
A|-3-----3-----5-----5-----3-----3-----5-----5-5-5-5-5---
E|--6-3-6-6-3---8-5-8-8-5---6-3-6-6-3---8-5-8------------

Lo siguiente se toca 4 veces:

E|-12-13-15-13-12-13-15--13-13-15-17-15-13-17-22---------
B|-------------------------------------------------------
G|-------------------------------------------------------
D|-------------------------------------------------------
A|-------------------------------------------------------
E|-------------------------------------------------------

C
Colegiala
                          Dm
Tu tarea es quererme colegiala
     C
Colegiala
                              Dm
Me metiste en tu horario de amor

C
Colegiala
                          Dm
Tu tarea es quererme colegiala
     C
Colegiala
                              Dm
Me metiste en tu horario de amor

(INTRO)



Keywords / Palabras clave: Colegiala, Los Askis, letras, letra, acordes, canciones, cancion, grupo, banda, cantante, tablatura, partitura, tocar con guitarra, armónica, teclado, bajo, ejecutar, bajar, mp3, música, chords, lyrics, versión, cover, piano, acrodes, acordes de Colegiala, Los Askis

Inicio | Artistas | Recursos | Buscar | AGREGA TU TABLATURA A 10ACORDES | Contacto

www.10acordes.com.ar - 2014© - 2014-07-24 18:18:50