letra, letras, acorde, acordes, tablatura, tablaturas, partitura, partituras de la canción Como un perro de Líbido, 7761

Como un perro de Líbido

Colaboración de Javier Miyasato Asato (TAB)

(javiermiy @ hotmail.com)          (Visitas: 15447)

Ver Como un perro de Líbido en vista para impresión



¿Dudas de cómo es un acorde? Visitar la página cómo formar acordes en guitarra

 
 
 G  320022
 ?  002323 no tengo idea de como se llama este acorde
 C  032010
 Em 022000
 
 
  
 La Cancion va mas o menos asi
 

 Intro :


 --2--2-2-22-22-22--3--3-3--33-33-33--0--0-0-00-00-00----0-0-00-00-00-
 --2--2-2-22-22-22--2--2-2--22-22-22--1--1-1-11-11-11----0-0-00-00-00-
 --0--0-0-00-00-00--3--3-3--33-33-33--0--0-0-00-00-00----0-0-00-00-00-
 --0----------------2-----------------2--2-2-22-22-22--2--------------
 --2----------------0-----------------3----------------2--------------
 --3----------------0-----------------0----------------0--------------

 --2--2-2-22-22-22--3--3-/6--66-66-66--0--0-0-00-00-00----0-0-00-00-00-
 --2--2-2-22-22-22--2--2-/5--55-55-55--1--1-1-11-11-11----0-0-00-00-00-
 --0--0-0-00-00-00--3--3-/6--66-66-66--0--0-0-00-00-00----0-0-00-00-00-
 --0--0-0-00-00-00--2--2-/5--55-55-55--2--2-2-22-22-22--2-2-2-22-22-22-
 --2--2-2-22-22-22--0------------------3--3-3-33-33-33--2-2-2-22-22-22-
 --3--3-3-33-33-33--0------------------0----------------0-0-0-00-00-00--

 Luego se tocan los acrodes con el mismo ritmo y haciendo intercaladamente 
 el slide de la 2da nota

 Discutes sin razon 
 G
 quieres llevar el control
 ?
 En tus manos no no no no voy a 
 C 
 bailar 
 Em

  Etc.


 En el coro entra un arpegiado de las notas (2da guitarra):

 
 
 -----------2---------------3----------------0----------------0------
 -------2------2--------2------2---------1------1---------0------0---
 -----0---0-----------3---3------------0---0------------0---0--------
 ------------------2-------------------------------------------------
 ------------------------------------3-------------------------------
 ---3-------------------------------------------------0--------------

           G             ?           C               Em

 X 2 veces


 Si alguien tiene el solo pór favor mandenlo a javiermiy@hotmail.com



Keywords / Palabras clave: Como un perro, Líbido, letras, letra, acordes, canciones, cancion, grupo, banda, cantante, tablatura, partitura, tocar con guitarra, armónica, teclado, bajo, ejecutar, bajar, mp3, música, chords, lyrics, versión, cover, piano, acrodes, acordes de Como un perro, Líbido

Inicio | Artistas | Recursos | Buscar | AGREGA TU TABLATURA A 10ACORDES | Contacto

www.10acordes.com.ar - 2014© - 2014-07-24 07:21:49