letra, letras, acorde, acordes, tablatura, tablaturas, partitura, partituras de la canción CON MIS MANOS LEVANTADAS HACIA EL CIELO de Danilo Montero, 41794

CON MIS MANOS LEVANTADAS HACIA EL CIELO de Danilo Montero

Colaboración de ESTA ES UNA EXELENTE CANCION PARA ADORAR A DIOS ESPERO QUE LES GUSTE Y QUE DIOS LOS BENDIGA (TAB)

()          (Visitas: )

Ver CON MIS MANOS LEVANTADAS HACIA EL CIELO de Danilo Montero en vista para impresión



¿Dudas de cómo es un acorde? Visitar la página cómo formar acordes en guitarra

 Con mis manos levantadas    
|-------------------------|
|--0--1--3--0--3--0--3--0-|
|-------------------------|
|-------------------------|
|-------------------------|
|-------------------------|


 Hacia el cielo
|--3—-5—-3--0--------|
|--------------------|
|--------------------|
|--------------------|
|--------------------|
|--------------------|

 
  Me presento ante ti    
|--0--2--3-3-3--3-2---|
|---------------------|
|---------------------|
|---------------------|
|---------------------|
|---------------------|


  Hoy mi señor     
|--2—3—3h5------|
|----------3----|
|---------------|
|---------------|
|---------------|


  Para recibir de ti   
|--0--2--3--3-3-3-3h5----|
|------------------------|
|------------------------|
|------------------------|
|------------------------|
|------------------------|


 La fuerza y el poder    
|--0—-7—-8—7—5-3----------|
|-------------------------|
|-------------------------|
|-------------------------|
|-------------------------|
|-------------------------|


   Para vivir     junto a ti                                   
|--3--5—5h7--5--|--8—-7—5---|
|---------------|-----------|
|---------------|-----------|
|---------------|-----------|
|---------------|-----------|
|---------------|-----------|

Coro:


Llenas hoy mi corazón                                            
|--7--8--10-10-10-10-10---|
|-------------------------|
|-------------------------|
|-------------------------|
|-------------------------|
|-------------------------|


  Con tu presencia                                         
|--7-8-10-10-8------|
|-------------------|
|-------------------|
|-------------------|
|-------------------|
|-------------------|


  Llenas de alegría y paz                                          
|--4--6--7-7-7--7--6------|
|-------------------------|
|-------------------------|
|-------------------------|
|-------------------------|
|-------------------------|


  Todo mi ser                                        
|--6-7--7h9--3-|
|--------------|
|--------------|
|--------------|
|--------------|
|--------------|


En cualquier necesidad  tú me responderás
|--0--2--3--3-3-3-2--|--2—3-3h5-5—7-7----|
|--------------------|-------------------|
|--------------------|-------------------|
|--------------------|-------------------|
|--------------------|-------------------|
|--------------------|-------------------|
  
 Porque me amas                                      
|--0--2--3--3-3---|
|-----------------|
|-----------------|
|-----------------|
|-----------------|

  Me amas                                      
|--8-7-5----|
|-----------|
|-----------|
|-----------|
|-----------|
|-----------|



Keywords / Palabras clave: CON MIS MANOS LEVANTADAS HACIA EL CIELO, Danilo Montero, letras, letra, acordes, canciones, cancion, grupo, banda, cantante, tablatura, partitura, tocar con guitarra, armónica, teclado, bajo, ejecutar, bajar, mp3, música, chords, lyrics, versión, cover, piano, acrodes, acordes de CON MIS MANOS LEVANTADAS HACIA EL CIELO, Danilo Montero

Inicio | Artistas | Recursos | Buscar | AGREGA TU TABLATURA A 10ACORDES | Contacto

www.10acordes.com.ar - 2014© - 2014-04-18 03:33:03