letra, letras, acorde, acordes, tablatura, tablaturas, partitura, partituras de la canción creo en ti de julio melgar, 42274

creo en ti de julio melgar

Colaboración de esto es para el solo de la guitarra (TAB)

(jonathan-2009 @ hotmail.es)          (Visitas: )

Ver creo en ti de julio melgar en vista para impresión



¿Dudas de cómo es un acorde? Visitar la página cómo formar acordes en guitarra

Solo
Para aprenderse este solo, lo único que necesitan es “escucharlo”... Que no es lo mismo que “oírlo”. y verán que esta muy fácil.

     Bm                                  G                        D   
E ---------------------------------------------------------------------------------
A ---------------------------------------------------------------------------------
D ---------------------------------------------------------------------------------
G -----------------------------------11s7-------------------------7-9-7-9-------
B -----7-------------7-10-7-----------------8-7-7-8-8s10-10------------5s7--
e --------10-9-9*-------------5s7-------------------------------------------------


              A                              Bm                                              G
E -------------------------------------------------------------------------------------
A -------------------------------------------------------------------------------------
D --------------------4----------------------------------------------------------------
G --------------4-2----2s4s2---------------------------------------------------------
B --5-3-2-3-2------------------------7-7--------------10-10-------10---10---10-
e -------------------------------------------10-9-9s12------------7-----7-----7-----


                              D                                                 A
E -------------------------------------------------------------------------------9--------
A ------------------------------------------------------------9-----9-----9-7----7------
D ----------------------------------------9-7-----------9-7----7-----7------------------
G --7s9-7-9-7-9------------------9-7-------7s9----------------------------------------
B ------------------5h7------------------------------------------------------------------
e -------------------------5-5s7----------------------------------------------------------

*esto quiere decir que vas a hacer un slide hacia arriba, hasta donde quieras llegar y un poco lento

ACORDES

Intro:   // G  A   F#m  G
            G   A   Bm //

Pre-coro:  //// Bm  A  G ////  D  A

Coro:   Bm   G   D   A




Keywords / Palabras clave: creo en ti, julio melgar, letras, letra, acordes, canciones, cancion, grupo, banda, cantante, tablatura, partitura, tocar con guitarra, armónica, teclado, bajo, ejecutar, bajar, mp3, música, chords, lyrics, versión, cover, piano, acrodes, acordes de creo en ti, julio melgar

Inicio | Artistas | Recursos | Buscar | AGREGA TU TABLATURA A 10ACORDES | Contacto

www.10acordes.com.ar - 2014© - 2014-09-22 08:51:18