letra, letras, acorde, acordes, tablatura, tablaturas, partitura, partituras de la canción Cuando agosto era 21 de Bonanza, 9034

Cuando agosto era 21 de Bonanza

Colaboración de americo (TAB)

(diazblancos @ hotmail.com)          (Visitas: 4751)

Ver Cuando agosto era 21 de Bonanza en vista para impresión



¿Dudas de cómo es un acorde? Visitar la página cómo formar acordes en guitarra

Empieza con el rasgueo


E ------------------------------------------------------------------------
B ------------------------------------------------------------------------
G ------------------------------------------------------------------------
D ------------------2---2----2--0--4-2-0----------------------------------
A ---------2---2--4---4----4--------------4-2-0-----------4--------4------
E --7h0--3---3-----------------------------------3-2-0-6-----2--6---------

E ------------------------------------------------------------------------
B ------------------------------------------------------------------------
G ------------------------------------------------------------------------
D -------------------------0-----------0-4-2-0-----------------------------
A --2--2-0---------------2---2--------2---------4-2-0----------4------4-----
E ----------0-2-3*-3*-3*-------0-3*3*3----------------3-2-0--6---2-6--------

E ------------------------------------------------------------------------
B ------------------------------------------------------------------------
G ------------------------------------------------------------------------
D ----------------------------------1-4---1-4-----------------------------
A --2-2-0---------------4------4-2------2-----2*--------------------------
E --------0-2-3-3-3-2-6---2-6---------------------------------------------



Keywords / Palabras clave: Cuando agosto era 21, Bonanza, letras, letra, acordes, canciones, cancion, grupo, banda, cantante, tablatura, partitura, tocar con guitarra, armónica, teclado, bajo, ejecutar, bajar, mp3, música, chords, lyrics, versión, cover, piano, acrodes, acordes de Cuando agosto era 21, Bonanza

Inicio | Artistas | Recursos | Buscar | AGREGA TU TABLATURA A 10ACORDES | Contacto

www.10acordes.com.ar - 2014© - 2014-04-16 16:07:34