letra, letras, acorde, acordes, tablatura, tablaturas, partitura, partituras de la canción Cuando agosto era 21 de Bonanza, 9035

Cuando agosto era 21 de Bonanza

Colaboración de Juan Sebastián Jesús Sossa (TAB)

(jsjs85 @ hotmail.com)          (Visitas: 1667)

Ver Cuando agosto era 21 de Bonanza en vista para impresión



¿Dudas de cómo es un acorde? Visitar la página cómo formar acordes en guitarra

SE COMIENZA CON ARPEGIO: Bm


       Em     A        D        Bm     Em   F#     Bm      B
E -0-2-2h3--2-0------0-2--5-2-0--------0---------------0h2-2--
B --------------2--3------------3--2-3----3-2--0-2-2h3--------
G ------------------------------------------------------------
D ------------------------------------------------------------
A ------------------------------------------------------------
E ------------------------------------------------------------


       Em          A             D        Bm     Em       F#         Bm
E -0-2-2h3--7-9-10-9--7--9-9-9-7-5--5-7-9-7--7-5-3--3-5-7-6--4-4-4-6-7—2------
B ------------------------------------------------------------------------3-0-
G ----------------------------------------------------------------------------
D ----------------------------------------------------------------------------
A ----------------------------------------------------------------------------
E ----------------------------------------------------------------------------


         Bm  
Se encontraba en los pilares 
         Em
de los viejos pasadisos 
     A
para esconder al hijo 
         D
que pronto iba a llegar 
      Em
fue difícil esconder 
      Bm 
en un pobre delantal 
          A       Bm
los tres meses demás



Y salía del colegio 
        Em
con un siete en la libreta 
         A
y en el vientre una cometa 
        D
que pronto querrá volar 
     Em
y se iba a caminar 
     Bm
y se iba a preguntar 
         A           Bm
por las calles sin final


      Bm
Y se fue a donde un cura 
         Em
quien le dijo era pecado 
        A
y muy pronto un abogado 
       D
le habló de lo legal 
          Em
y fue el profesor de ciencias 
            Bm
quien le habló de la inconciencia 
       A          Bm   Em
de la juventud actual 
       A          D
de la juventud actual


BAJO RÁPIDO:
E -------------------
B -------------------
G -------------------
D -0-4-2-0-----------
A ---------4-2-0-----
E ---------------3-2-


         F#
Los que juzgan 
          Bm
no han sentido 
     G   
el amor el dolor 
                  A     D
y en el vientre unos latidos

BAJO RÁPIDO

         F#
que se enredan 
       Bm
en prejuicios 
       G  F#  Bm
y el amor

< Bm A G F#  >
< Em Bm A Bm >
< Em Bm A Bm >


Y le hablaban de pastillas 
y le hablaban de remedios 
de una vieja mujercilla 
que el trabajo lo hacía bien 
no faltó una buena amiga 
esa amiga entre comillas 
que le dio la dirección


Y salía del colegio 
en una fría mañana 
cuando la vieja campana 
aún no daba su talán 
mientras el profe de ciencias 
hablaba de la inconciencia 
de la juventud actual

Cuando agosto era 21 
la encontraron boca arriba 
con la mirada perdida 
y en su viejo delantal 
y en el bolso del colegio 
dibujado un corazón 
que decía tu y yo
que decía tu y yo

Los que juzgan 
no han sentido 
el amor el dolor 
y en el vientre unos latidos
         F#
que se enredan 
       Bm
en prejuicios 
       G  F#  B
y el amor



Keywords / Palabras clave: Cuando agosto era 21, Bonanza, letras, letra, acordes, canciones, cancion, grupo, banda, cantante, tablatura, partitura, tocar con guitarra, armónica, teclado, bajo, ejecutar, bajar, mp3, música, chords, lyrics, versión, cover, piano, acrodes, acordes de Cuando agosto era 21, Bonanza

Inicio | Artistas | Recursos | Buscar | AGREGA TU TABLATURA A 10ACORDES | Contacto

www.10acordes.com.ar - 2014© - 2014-04-20 12:59:28