letra, letras, acorde, acordes, tablatura, tablaturas, partitura, partituras de la canción Cuentas de Yordano Di Marzo, 9326

Cuentas de Yordano Di Marzo

Colaboración de Rubén Salazar (TAB)

(ruben @ bomberos.usb.ve)          (Visitas: 3089)

Ver Cuentas de Yordano Di Marzo en vista para impresión



¿Dudas de cómo es un acorde? Visitar la página cómo formar acordes en guitarra

  DESPUÉS DEL INTRO SE REPITE EL MISMO PATRÓN EN CADA VERSO

  INTRO
   C       Am      Dm      G7      C       G7      F       G7
e|----1-------0-------1-------3-------1-------3-------1-------3----
B|-----2-------1-------3-------3-------2-------3-------1-------3---
G|------------------2----------------------------------------------
D|---2--2----2--2--0----0----0--0----2--2----0--0----3--3----0--0--
A|-3-------0-----------------------3-------------------------------
E|-------------------------3---------------3-------1-------3-------

  VERSO
   C       Am      Dm      G7      C       G7      F       G7
   Cuentas                que tienes otro novio           que no se
e|----1-------0-------1-------3-------1-------3-------1-------3----
B|-----2-------1-------3-------3-------2-------3-------1-------3---
G|------------------2----------------------------------------------
D|---2--2----2--2--0----0----0--0----2--2----0--0----3--3----0--0--
A|-3-------0-----------------------3-------------------------------
E|-------------------------3---------------3-------1-------3-------

   C       Am      Dm      G7      C       G7      F       G7
  atreve ni a...          Ya es difícil de creer
e|----1-------0-------1-------3-------1-------3-------1-------3----
B|-----2-------1-------3-------3-------2-------3-------1-------3---
G|------------------2----------------------------------------------
D|---2--2----2--2--0----0----0--0----2--2----0--0----3--3----0--0--
A|-3-------0-----------------------3-------------------------------
E|-------------------------3---------------3-------1-------3-------

   C       Am      Dm      G7      C       G7      F       G7
   Y me cuentas            que a veces te averguenzas   Y es que te
e|----1-------0-------1-------3-------1-------3-------1-------3----
B|-----2-------1-------3-------3-------2-------3-------1-------3---
G|------------------2----------------------------------------------
D|---2--2----2--2--0----0----0--0----2--2----0--0----3--3----0--0--
A|-3-------0-----------------------3-------------------------------
E|-------------------------3---------------3-------1-------3-------

   C       Am      Dm      G7      C       G7      F       G7
  ha dado por crecer       como el viento en alta mar     Como el 
ee|----1-------0-------1-------3-------1-------3-------1-------3----
B|-----2-------1-------3-------3-------2-------3-------1-------3---
G|------------------2----------------------------------------------
D|---2--2----2--2--0----0----0--0----2--2----0--0----3--3----0--0--
A|-3-------0-----------------------3-------------------------------
E|-------------------------3---------------3-------1-------3-------

   C       Am      Dm      G7      C       G7      F       G7
  viento en alta mar       Como el viento en alta mar
e|----1-------0-------1-------3-------1-------3-------1-------3----
B|-----2-------1-------3-------3-------2-------3-------1-------3---
G|------------------2----------------------------------------------
D|---2--2----2--2--0----0----0--0----2--2----0--0----3--3----0--0--
A|-3-------0-----------------------3-------------------------------
E|-------------------------3---------------3-------1-------3-------


   LETRA
   -----

   INTRO

   VERSO 1
   Cuentas
   que tienes otro novio
   que no se atreve ni a mirarte.
   Ya es difícil de creer.

   Y me cuentas
   que a veces te avergüenzas.
   Y es que te ha dado por crecer hay mi sol
   como el viento el alta mar
   Como el viento el alta mar.
   Como el viento el alta mar.

   VERSO 2
   Y te das cuenta
   que al correr ya no te alcanzo.
   Que necesita un descanso el corazón.
   Ya no late igual que ayer.

   Y como en cuentos
   de sirenas y gacelas
   tú no paras ni un momento mi sol.
   Eres como un manantial.
   Eres como un manantial.
   Eres como un manantial.

   VERSO 3
   Y ahora vienen y me cuentan
   que no tienes ningún novio,
   ni siquiera enamorado,
   y eso sí no puede ser.

   Y te cuento
   que da alegría verte siempre
   con esos ojos que no mienten mi sol.
   Mientas viva te amaré.
   Mientas viva te amaré.
   Mientas viva te amaré.
   Mientas viva te amaré.
   Mientas viva te amaré.
   Mientas viva te amaré.
   Mientas viva te amaré.



Keywords / Palabras clave: Cuentas, Yordano Di Marzo, letras, letra, acordes, canciones, cancion, grupo, banda, cantante, tablatura, partitura, tocar con guitarra, armónica, teclado, bajo, ejecutar, bajar, mp3, música, chords, lyrics, versión, cover, piano, acrodes, acordes de Cuentas, Yordano Di Marzo

Inicio | Artistas | Recursos | Buscar | AGREGA TU TABLATURA A 10ACORDES | Contacto

www.10acordes.com.ar - 2014© - 2014-07-31 10:10:11