letra, letras, acorde, acordes, tablatura, tablaturas, partitura, partituras de la canción Cumpleaños Feliz de Canciones Populares, 9451

Cumpleaños Feliz de Canciones Populares

Colaboración de miguel angel kuri

(guitarlive_kuri @ hotmail.com)          (Visitas: 366287)

Ver Cumpleaños Feliz de Canciones Populares en vista para impresión



¿Dudas de cómo es un acorde? Visitar la página cómo formar acordes en guitarra

bueno este es el tab de feliz cumple años espero que lo 
toquen con los tiempos y la velocidad nesesariadudas,comentarios
guitarlive_kuri@hotmail.com

1---------0------------2-0-----------------
2-0-0-2-0---4--0-0-2-0---------------------
3------------------------------------------
4------------------------------------------
5------------------------------------------
6------------------------------------------

1-----7-4-2-----5-5-4-0-2-0----------------
2-0-0------4-2-----------------------------
3------------------------------------------
4------------------------------------------
5------------------------------------------
6------------------------------------------

pues eso es todo la verdad es facilisima bie.



Keywords / Palabras clave: Cumpleaños Feliz, Canciones Populares, letras, letra, acordes, canciones, cancion, grupo, banda, cantante, tablatura, partitura, tocar con guitarra, armónica, teclado, bajo, ejecutar, bajar, mp3, música, chords, lyrics, versión, cover, piano, acrodes, acordes de Cumpleaños Feliz, Canciones Populares

Inicio | Artistas | Recursos | Buscar | AGREGA TU TABLATURA A 10ACORDES | Contacto

www.10acordes.com.ar - 2014© - 2014-07-24 18:18:54