letra, letras, acorde, acordes, tablatura, tablaturas, partitura, partituras de la canción Dale de Catupecu Machu, 9492

Dale de Catupecu Machu

Colaboración de Mauro Hernandez (TAB)

(mauroeh @ starmedia.com)          (Visitas: 2681)

Ver Dale de Catupecu Machu en vista para impresión



¿Dudas de cómo es un acorde? Visitar la página cómo formar acordes en guitarra

INTRO:


1-------------------------------------+
2-------------------------------------+
3-----------3-4-6\3-----------3-4-7~~-+
4-----0-5---------------0-5-----------+
5---------5-----------------5---------+
6--0-3--------------0-3---------------+

1-------------------------------------+
2-------------------------------------+
3--10/12-12-12-12-12-12-12-12---------+
4--10/12-12-12-12-12-12-12-12---------+
5-------------------------------------+
6-------------------------------------+

1-------------------------------------+
2-------------------------------------+
3--12-11-12-11-12---------------------+
4--12-11-12-11-12---------------------+
5-------------------------------------+
6-------------------------------------+

1--------------------------------------------+
2--------------------------------------------+
3----------6-6~~---------6-6~~---------6-6~~-+
4--5-5--7---------5-5--7--------5-5--7-------+
5--5-5--7---------5-5--7--------5-5--7-------+
6--3-3--5---------3-3--5--------3-3--5-------+

1--------------------------------------------+
2--------------------------------------------+
3--------------------------------------------+
4--7-7-7-7-7-7-7-7-7-7-7-7-7-7-7-7--5~~------+
5--7-7-7-7-7-7-7-7-7-7-7-7-7-7-7-7--5~~------+
6--5-5-5-5-5-5-5-5-5-5-5-5-5-5-5-5--3~~------+


AGUANTE CATUPE!!!!!!!!!!!!!



Keywords / Palabras clave: Dale, Catupecu Machu, letras, letra, acordes, canciones, cancion, grupo, banda, cantante, tablatura, partitura, tocar con guitarra, armónica, teclado, bajo, ejecutar, bajar, mp3, música, chords, lyrics, versión, cover, piano, acrodes, acordes de Dale, Catupecu Machu

Inicio | Artistas | Recursos | Buscar | AGREGA TU TABLATURA A 10ACORDES | Contacto

www.10acordes.com.ar - 2014© - 2014-10-21 07:00:29