letra, letras, acorde, acordes, tablatura, tablaturas, partitura, partituras de la canción De la guitarra de Intoxicados, 9804

De la guitarra de Intoxicados

Colaboración de Pablito Gabriel (TAB)

(Pablitogabriel @ hotmail.com)          (Visitas: 8376)

Ver De la guitarra de Intoxicados en vista para impresión



¿Dudas de cómo es un acorde? Visitar la página cómo formar acordes en guitarra

ntro: (G-A-C)x2
       (G-A-C)x2  
E|-------------------------------------------------------||
B|-------------------------------8------5b---------------||
G|-4h5h4---4h5h4---4h5h4---7---7----7-5-------5----5-----||
D|-----------------------5----5-----------------7----(5)-||
A|-------------------------------------------------------||
E|-------------------------------------------------------||

E|---------------------------------------------------8------8---10-8--10-8---8-8-7-5-(3)---||
B|-------------------------------8------5b------5/10-----5/8--8------8-----8---------------||
G|-4h5h4---4h5h4---4h5h4---7---5----7-5----7-5---------------------------------------------||
D|-----------------------5----5------------------------------------------------------------||
A|-----------------------------------------------------------------------------------------||
E|-----------------------------------------------------------------------------------------||


       riff 1         riff 2           riff 3               riff 4                riff 5
e|--------------|--3-/5--7--5/3--|----------------(0)-|------------------|----------------------------5-8-10---||
B|--------------|--3/-5-----5/3--|----------------(0)-|------------------|----------------------5-7-8----------||
G|--------------|----------------|----------------(0)-|------------------|-------------------5-7---------------||
D|--------------|----------------|----------------(2)-|-02h4h5-0h2h4h5-0-|----7-----------5-7------------------||
A|-------2-3-5--|----------------|--0-3-2---------(2)-|------------------|-5h7---------5-7---------------------||
E|-0-3-5--------|----------------|--------3-2-(0)-(0)-|------------------|--------5-7-8------------------------||



G       A                  C             G
 Solía verla siempre, temprano en las mañanas
G                  A              C           G           (riff 1) 
 Tomaba el mismo tren que yo esperaba frente de la estación
G                     A                  C         G  (riff 2)
 Es que, en frente habia un negocio que vendía guitarras
G         A                      C               G       (riff 3)
 Me llamaba la atención de la forma que las miraba ah ah


Em     A
 Uhh  Uhh
          C                               (riff 3)
 Hacia el tren mientras su sueño se alejaba
Em     A
 Uhh  Uhh 
          C
 Las estaciones triste la vieron pasar


G-A-C   x2 (intro)


G           A         C            G (riff 2)
 Jamas volvi a verla mirando las guitarras
G              A                     C            G       (riff 3)
 Pero tengo la sensación que ahora está tocando alguna canción

Em     A
 Uhh  Uhh
     C                               (riff 3)
 Hacia el tren mientras su sueño se alejaba
Em     A
 Uhh  Uhh
          C                             D
 Las estaciones triste la vieron pasar

G              C
 No hablo de drogas, 
                A
 No hablo de tranzas
              D     C
 No hablo de cosas raras
G                C
 Es un pequeño anhelo, 
         A          D (riff 4)
 Una pequeña tentación 
G               C   
 El sueño de algunos 
                      A
 Puede ser cambiar el auto 
              D       C          G
 O tener una casa de fin de semana
             C                  
 El sueño de otros puede ser 
         A        (riff 5)
 Solo tener una guitarra
         D                          G
 Para tocar esta cancion que escuchas



G-A-C  x2
e|-3--0--0--------------------3-0-0---------3-0-0---------------3-0-0--------------||
B|-3--2--1--------------------3-2-1---------3-2-1---------------3-2-1--------------||
G|-0--2--0--------------------0-2-0---------0-2-0---------------0-2-0--------------||
D|-0--2--2--------------------0-2-2---------0-2-2---------------0-2-2--------------||
A|-2--0--3--3-2-0-3-2-0-3-----2-0-3-3-2-0-3-2-0-3-3-2-0-3-2-0-3-2-0-3--0-3-2-------||
E|-3----------------------(3)-3-------------3-------------------3------------3-2-0-||


Em     A
 Uhh  Uhh
     C                               (riff 3)
 Hacia el tren mientras su sueño se alejaba
Em     A
 Uhh  Uhh
          C                             D
 Las estaciones triste la vieron pasar

G              C
 No hablo de drogas, 
                A
 No hablo de tranzas
              D     C
 No hablo de cosas raras
G                C
 Es un pequeño anhelo, 
         A          D (riff 4)
 Una pequeña tentación 
G               C   
 El sueño de algunos 
                      A
 Puede ser cambiar el auto 
              D       C          G
 O tener una casa de fin de semana
             C                  
 El sueño de otros puede ser 
         A        (riff 5)
 Solo tener una guitarra
         D                          G
 Para tocar esta cancion que escuchas

e|-------------------------------------------------------------------------------------||
B|-------------------------------------------------------------------------------------||
G|-4h5h4---7---4h5h4-4-4h5h4---7--4h5h4-4-4h5h4---7-4h5h4---7-4h5h4-4-4h5h4-4h5h4------||
D|-------5-------------------5------------------5---------5----------------------------|| x2
A|-------------------------------------------------------------------------------------||
E|-------------------------------------------------------------------------------------||


e|-------------------------------------------------------------------------------------||
B|-------------------------------------------------------------------------------------||
G|--4-0-0-0-4-0-0-0-0-4-0-0-0-5-0-0-0-5-0-0-0-5-0-0-0-4-0-0-0-4-(0)--------------------||
D|-------------------------------------------------------------------------------------||
A|-------------------------------------------------------------------------------------||
E|-------------------------------------------------------------------------------------||



´ El Ghetto Del Rey ´ rnr



Keywords / Palabras clave: De la guitarra, Intoxicados, letras, letra, acordes, canciones, cancion, grupo, banda, cantante, tablatura, partitura, tocar con guitarra, armónica, teclado, bajo, ejecutar, bajar, mp3, música, chords, lyrics, versión, cover, piano, acrodes, acordes de De la guitarra, Intoxicados

Inicio | Artistas | Recursos | Buscar | AGREGA TU TABLATURA A 10ACORDES | Contacto

www.10acordes.com.ar - 2014© - 2014-07-29 15:29:18