letra, letras, acorde, acordes, tablatura, tablaturas, partitura, partituras de la canción De la noche a la mañana de Elefante, 9815

De la noche a la mañana de Elefante

Colaboración de Jose Luis Galindez (TAB)

(punk_dark_angel @ hotmail.com)          (Visitas: 9220)

Ver De la noche a la mañana de Elefante en vista para impresión



¿Dudas de cómo es un acorde? Visitar la página cómo formar acordes en guitarra

Esta es la tab completa y correcta de la canción las demás
suenan mal.

e|-------1-0------------3--5--3-------3---1---0--0-1-0----|
b|-----3-----3--------3---------3---3---3---1-------------|
g|---2---------2----0-------------------------------------|
d|-0------------------------------------------------------|
a|--------------------------------------------------------|
E|----------------3---------------------------------------|

e|-------1-0------------3--5--3--------10------8-----6---6---5|
b|-----3-----3--------3---------3---11-----10-----8--------8--|
g|---2---------2----0-----------------------------------------|
d|-0----------------------------------------------------------|
a|------------------------------------------------------------|
E|----------------3-------------------------------------------|


Empieza la cancion y va el siguiene riff durante el primer verso

e|-------------------------------------------------------|
b|1h3--1--1h3--1--1h3--1--1h3--1--1h3--3--1---1-1h3-1-1h3|

1er verso
Dm
Me despierta el corazon en la mañana
  G
Puedo ver salir el sol en su mirada
 A#              C   	      Dm
Todo puede suceder cuando se ama



Va el siguiente riff durante el 2do verso

e|------------------------------------------|
b|1h3--1--1h3--1--1h3--1--1h3--1--1h3-3--1--|


e|-1-----3-----1--------1-3---1-----3----1------|
b|---3-----3-----3----3--3------3-----3---3-3s5-|

2do verso
 Dm
El amor sabe mejor sobre la cama
 G
Pero se te apága el sol cuando se marcha
    A#         C 	   Dm
Y cuelgas los ojos en la ventana
   A#          C
Y vives de  a poco


CORO

		 Dm
Y se detiene el tiempo en tu cara
       	           G
Y se te acaba el cuento de adas
  		   A#
Y  se te mueve el piso ,
	         C	           Dm
El cielo , y no sabes ni como te llamas
                  Dm
Y sientes que la virgen te habla
		  G
Sientes que le silencio te embriaga
               A#       	 C
Y quieres  gritar y gritar y gritar
                   Dm
Y no encuentras palabras

    A#         C             Dm
Y cuelgas los ojos de la ventana

e|-10p8-----10-------|
b|-------11----10----|

   A# 	       C
Y vives de a poco

e|------------------------------------------|
b|------------------------------------------|
g|------------------------------------------|
d|------------------------------------------|
a|----3--5----3--5---3--5----3--5-----3--5--|
E|--5-------5------5-------5-------5--------|

e|---------------------------|
b|---------------------------|
g|---------------------------|
d|-----2---------------------|
a|---3------5--3--5-----3--5-|
E|-5-----------------5-------|


va el siguiente riff durante el 3er verso


e|------------------------------------------------------------------|
b|1h3--1--1h3--1--1h3--1--1h3--1--1h3---3--1---1-1h3--1-1-3---1-1-3-|


3er verso

Dm
Me desvela el corazon la muy ingrata
  G
Ya no se ni donde estoy, ni lo que pasa
 A#	       C           Dm
Algo puede suceder si regresara

va el siguiente riff durante el 4to verso

e|-----------------------------------------------------------------|
b|1h3--1--1h3--1--1h3--1--1h3--1--1h3---3--1---1-1h3--1-3-1---1-3-1|


4to verso
Dm
Todo tiene solucion solo en su cama
G
Pero se te apaga el sol cuando se marcha
    A#	       C	     Dm
Y cuelgas los ojos en la ventana oh eh¡¡
    A#	       C
Y Mueres de a poco


CORO:
                  Dm
Y se detiene el tiempo en tu cara
		   G
Y se te acaba el cuento de adas
		  A#
Y se te mueve el piso,
	       C		Dm
El cielo y no sabes ni como te llamas
                  Dm
Y sientes que la virgen te habla
(aqui acomoden el ritmo con la canción)

e|10--10--10-10-10-10---10-10---10-10--12-12--12-12-12-13-13----12-13-12-|
b|-----------------------------------------------------------------------|


e|--10--10--10-10-10-------------------10-10-|
b|--------------------13--13-13-13-13--------|


e|--10-10--10--10-10-10--10-10-10-|
b|--------------------------------|

		  G
Sientes que le silencio te embriaga
               A#		 C
Y quieres  gritar y gritar y gritar
 		   Dm
Y no encuentras palabras

    A# 	       C	  Dm
Y cuelgas lo ojos en la ventana
g|-------8-10-8----------|
d|-8h10---------10p8-----|
a|-------------------10--|
    A#	       C
Y mueres de a poco

(armonica)

e|-1---0-----------------0---1-1-1--0-1---0-1--1-1-0-|
b|--------3----1----3--------------------------------|
g|---------------------------------------------------|

e|1-0-1-0-1-0-1-0----1---------1-0--1-0-1-------|
b|----------------3----1-3-3--------------------|
g|----------------------------------------------|

CORO:
                  Dm
Y se detiene el tiempo en tu cara
		   G
Y se te acaba el cuento de adas
		  A#
Y se te mueve el piso,
	       C		Dm
El cielo y no sabes ni como te llamas
                  Dm
Y sientes que la virgen te habla

e|10--10--10-10-10-10---10-10---10-10--12-12--12-12-12-13-13----12-13-12-|
b|-----------------------------------------------------------------------|


e|--10--10--10-10-10-----|
b|--------------------13-|



		  G
Sientes que le silencio te embriaga
               A#		 C
Y quieres  gritar y gritar y gritar

e|----------|
b|----------|
g|----------|
d|----------|
a|----3--5--|
E|--5-------|



Keywords / Palabras clave: De la noche a la mañana, Elefante, letras, letra, acordes, canciones, cancion, grupo, banda, cantante, tablatura, partitura, tocar con guitarra, armónica, teclado, bajo, ejecutar, bajar, mp3, música, chords, lyrics, versión, cover, piano, acrodes, acordes de De la noche a la mañana, Elefante

Inicio | Artistas | Recursos | Buscar | AGREGA TU TABLATURA A 10ACORDES | Contacto

www.10acordes.com.ar - 2014© - 2014-07-31 04:02:44