letra, letras, acorde, acordes, tablatura, tablaturas, partitura, partituras de la canción decode de paramore, 42215

decode de paramore

Colaboración de ahpra siii (TAB)

(geita052 @ hotmail.com)          (Visitas: )

Ver decode de paramore en vista para impresión



¿Dudas de cómo es un acorde? Visitar la página cómo formar acordes en guitarra


e|--------------------9---------------------9-------------------------
B|----11---11---11---------11----11---11------------------------------
G|-------10---10---10---10----10---10----10---10----------------------
D|--------------------------------------------------------------------
A|--------------------------------------------------------------------
E|--------------------------------------------------------------------

e|-------------------13-------------------11--------------------------
B|--11---11----11---------11----11----11------------------------------
G|-----13---13----13---13----13----13---------------------------------
D|--------------------------------------------------------------------
A|--------------------------------------------------------------------
E|--------------------------------------------------------------------




  Intro es asi se tocan los puros bajos A# JUNTO CON EL PUNTEO


F
How can I decide what’s right?
D#m
when you’re clouding up my mind
A#
I can’t win your losing fight,
F
all the time

F
How can I ever own what’s mine,
D#m
when you’re always taking sides
A#
But you won’t take away my pride,
F        D#m     
no not this time
A#        F
Not this time…


F#
How did we get here
D#m
When I used to know you so well
A#
But how did we get here
F
I think I know




PUNTEO INTRO



F
The truth is hiding in your eyes
D#m
and its hanging on your tongue
A#
Just boiling in my blood
F
but you think that I cant see
F
What kind of man that you are,
D#m
if you’re a man at all
A#
Well I will figure this one
F        D#m  
out on my own

[I’m screaming i love you so]
A#     F
on my own

[my thoughts you can’t decode]



F#
How did we get here
D#m
When I used to know you so well
A#
But how did we get here
F
I think I know

SOLO 

e|----------------------------13-------------------------------13-----
B|--13h14h13-11--13h14h13-11-----11--13h14h13-11--13h14h13-11-----11--
G|--------------------------------------------------------------------
D|--------------------------------------------------------------------
A|--------------------------------------------------------------------
D|--------------------------------------------------------------------

e|--------------------------------------------------------------------
B|-13h14h13-11-11-9-9-------------------------------------------------
G|------------------------5-6—8~--------------------------------------
D|--------------------------------------------------------------------
A|--------------------------------------------------------------------
D|--------------------------------------------------------------------

e|----------------------------13-------------------------------13-----
B|--13h14h13-11--13h14h13-11-----11--13h14h13-11--13h14h13-11-----11--
G|--------------------------------------------------------------------
D|--------------------------------------------------------------------
A|--------------------------------------------------------------------
D|--------------------------------------------------------------------

e|---------------------16--18-----------------------------------------
B|-13---13/14--14-14----------14---13~--------------------------------
G|--------------------------------------------------------------------
D|--------------------------------------------------------------------
A|--------------------------------------------------------------------
D|--------------------------------------------------------------------|

F
Do you see what we’ve done
D#m
We’re gonna make such fools of ourselves
A#
Do you see what we’ve done
F
We’re gonna make such fools of ourselves


F#  D#m  A#  F

F#
How did we get here
D#m
When I used to know you so well
A#
But how did we get here
F
I think I know


F F# G#  D#m   A#   F F#  A#
There is something I see in you
F    F#     A#
It might kill me
F    F#     D#m
I want it to be true
        



Keywords / Palabras clave: decode, paramore, letras, letra, acordes, canciones, cancion, grupo, banda, cantante, tablatura, partitura, tocar con guitarra, armónica, teclado, bajo, ejecutar, bajar, mp3, música, chords, lyrics, versión, cover, piano, acrodes, acordes de decode, paramore

Inicio | Artistas | Recursos | Buscar | AGREGA TU TABLATURA A 10ACORDES | Contacto

www.10acordes.com.ar - 2014© - 2014-10-22 10:26:29