letra, letras, acorde, acordes, tablatura, tablaturas, partitura, partituras de la canción desde mi interior de hillson, 41845

desde mi interior de hillson

Colaboración de (TAB)

(maglioni124 @ hotmail.com)          (Visitas: )

Ver desde mi interior de hillson en vista para impresión



¿Dudas de cómo es un acorde? Visitar la página cómo formar acordes en guitarra

Desde mi interior
((Electric guitar))

h=hammer on
/=slide


Intro:
e----------------12---------12------------------------------|
b---------13-------------13----12-13h15-12------------------|
g--12h14------14------12-------------------12---------------|
d-----------------------------------------------------------|
a-----------------------------------------------------------|
e-----------------------------------------------------------|


Solo:
e---------------12-----13------12-------|
b-13-----13-----12-x8--12--x4--12--x4---|
g-14-x8--12-x8--------------------------|
d---------------------------------------|
a---------------------------------------|
e---------------------------------------|

e---------------------------------------------------------|
b-13--12--10--12-------13--12--10--10--12-----------------|
g-----------------12-----------------------10-------------|
d---------------------------------------------------------|
a---------------------------------------------------------|
e---------------------------------------------------------|

e-------------------------|
b------------------10-----|
g--9--10--9--7--9---------|
d-------------------------|
a-------------------------|
e-------------------------|

e-------------------------12------------| x2
b--13--12--10--12--13--x1---12-x8-------|
g---------------------------------------|
d---------------------------------------|
a---------------------------------------|
e---------------------------------------|

e------17------17------17------17------17-------(19)---|
b--15------15------15------15------15------(17)--------|
g------------------------------------------------------|
d------------------------------------------------------|
a------------------------------------------------------|
e------------------------------------------------------|
Those chords are 100% correct. This tab is just for the Guitar 2 parts.

Standard Tuning – No capo

Intro riff:
E|-----------------12-------12-------------|
B|--------13-------------13----13-15-12----|
G|--12h14----14-14----12----------------12-|
D|-----------------------------------------|  (3x)
A|-----------------------------------------|
E|-----------------------------------------|

It’s easier to play this if you barre the 12th fret with your index finger the whole time.


Verse riff:
e|-------------------------------3---|
B|-----1---------1-------1-------3---|
G|---2---2-----0---0---0---0---0---0-|
D|---------2h3-----------------------|  (2x)
A|-0-----------------3---------------|
E|---------------------------3-------|

This is a riff I made up that sounds good when played over the verse chords. 
fame.”) The chord shapes are just Am, F, C and G.


Solo:
e|-8--8--8--8--8--8--8--8--8-8-8-8-8-8-8-8-12-12-12-12-12-12-12-12-13-13-13-13-13-13-13-13-|
B|-10-10-10-10-10-10-10-10-8-8-8-8-8-8-8-8-13-13-13-13-13-13-13-13-13-13-13-13-13-13-13-13-|
G|-----------------------------------------------------------------------------------------|
D|-----------------------------------------------------------------------------------------|
A|-----------------------------------------------------------------------------------------|
E|-----------------------------------------------------------------------------------------|

e|----------------------------------------------------------12-10-8---15-15-15-15----------|
B|-13-12-10h12-8-13-12-12-10-10h12------10-----10-------10--13-12-10--13-13-13-13----------|
G|---------------------------------10-9----9-7----7-7/9------------------------------------|
D|-----------------------------------------------------------------------------------------|
A|-----------------------------------------------------------------------------------------|
E|-----------------------------------------------------------------------------------------|

e|-15-15-15-15--12-10-8---15-15-15-15-15-15-15-15----17----17----17----17-------19---------|
B|-13-13-13-13--13-12-10--13-13-13-13-13-13-13-13/15----15----15----15----15/17------------|
G|-----------------------------------------------------------------------------------------|
D|-----------------------------------------------------------------------------------------|
A|-----------------------------------------------------------------------------------------|
E|-----------------------------------------------------------------------------------------|




Keywords / Palabras clave: desde mi interior, hillson, letras, letra, acordes, canciones, cancion, grupo, banda, cantante, tablatura, partitura, tocar con guitarra, armónica, teclado, bajo, ejecutar, bajar, mp3, música, chords, lyrics, versión, cover, piano, acrodes, acordes de desde mi interior, hillson

Inicio | Artistas | Recursos | Buscar | AGREGA TU TABLATURA A 10ACORDES | Contacto

www.10acordes.com.ar - 2014© - 2014-08-21 20:35:32