letra, letras, acorde, acordes, tablatura, tablaturas, partitura, partituras de la canción DISCULPA LOS MALOS PENSAMIENTOS de Panda, 41816

DISCULPA LOS MALOS PENSAMIENTOS de Panda

Colaboración de ES BUENA PRUEBENLA (TAB)

(tomasarrata @ hotmail.com)          (Visitas: )

Ver DISCULPA LOS MALOS PENSAMIENTOS de Panda en vista para impresión



¿Dudas de cómo es un acorde? Visitar la página cómo formar acordes en guitarra

            DISCULPA LOS MALOS PENSAMIENTOS
  TURNING:BEMOL

 GUITARRA 2
1|----|                          1|----|
2|----|                          2|----|
3|-4--| hasta los 5 seg cambia a 3|----|
4|-4--|                          4|-6--|
5|-2--|                          5|-6--|
6|----|                          6|-4--|

1|----|                        1|----|
2|----|                        2|----|
3|----| 4 seg despues cambia a 3|----|
4|-2--|                        4|-4--|
5|-2--|                        5|-4--|
6|-0--|                        6|-2--|

  GUITARRA 1 (Intro) se toka al mismo tiempo ke la GUITARRA 2
  Y SE UTILIZA TAMIEN EN LOS COROS.
  1|--------------------------------------|
  2|12-12-12-11-12-16-16-16-14-16-14-12---|
  3|x--x--x--x--x--x--x--x--x--x--x--x----| x3 veces
  4|9--9--9--8--9-/13-13-13-11-13-11-9----|
  5|--------------------------------------|
     y luego esto
  1|------------------------------------------------|
  2|12---11-11--12-12-12-14-12--11-11-16-16--14--12-|
  3|x----x--x---x--x--x—--x--x---x--x--x--x---x--x--|
  4|9----8--8---9—-9-—9/-11--9---8--8-13-13--11--9--|
  5|------------------------------------------------|
  6|------------------------------------------------|

  "Enjuagaremos aquellas veces ke dijiste ke me amabas" Lira 1
  1--------------------|     1--------------------|
  2--------------------|     2--------------------|
  3--------------------|     3--------------------|
  4--------------------|     4--------------------|
  5--xx9--x9-7-x6-7-6--| x 2 5--xx6--x9-7-x6-7-6--| x 2
  6--xx7---------------|     6--xx4---------------|

  1--------------------|     1--------------------|
  2--------------------|     2--------------------|
  3--------------------|     3--------------------|
  4--------------------|     4-------x4-2--x1--2-1|
  5--xx7--x9-7-x6-7-6--| x 2 5--xx4---------------| x 2
  6--xx7---------------|     6--xx2---------------|

- 47 seg (coro)

- 1:04 se repite lo mismo de "ENJUAGAREMOS AKELLAS VECES..."

- 1:15 GUITARRA 2
  1|-----------------------------|
  2|11,11,11,11,11,11,11,11,11,11| esto va muy rapido
  3|xxxxxxxxxxxxxxxxxxxxxxxxxxxxx|
  4|8--8--8--8--8--8--8--8--8--8-|
  5|-----------------------------|
  6|-----------------------------|

- 1:19seg "Olvidaremos todos esos momentos ke..." las 2 guitarras

  guitarra 2
  1|--------------------|
  2|--------------------|
  3|xx9--x11-9-x9--11-9-| x 8 veces
  4|xx9--x11-9-x9--11-9-|
  5|--------------------|

  guitarra 1
  1--------------------|     1--------------------|
  2--------------------|     2--------------------|
  3--------------------|     3--------------------|
  4--------------------|     4--------------------|
  5--xx9--x9-7-x6-7-6--| x 2 5--xx6--x9-7-x6-7-6--| x 2
  6--xx7---------------|     6--xx4---------------|

  1--------------------|     1-------------------|
  2--------------------|     2-------------------|
  3--------------------|     3-------------------|
  4--------------------|     4------x4-2--x1--2-1|
  5--xx7--x9-7-x6-7-6--| x 2 5-xx4---------------| x 2
  6--xx7---------------|     6-xx2---------------|

- 1:35seg "Celebraremos ke todo termino con un..."
  1|----------------|
  2|----------------|
  3|-4--------------|
  4|-4---6---2---4--|
  5|-2---6---2---4--|
  6|-----4---0---2--|

- 1:50seg (Coro)

- 2:07seg cambia el tiempo es mas lento de la guitarra 1
  y hace esto: desde 2:07seg hasta 2:19seg
  1---------------------------------------|
  2-12-12-12-11-12-16-16-16-14-16-14-12---|
  3-x--x--x--x--x--x--x--x--x--x--x--x----| x3
  4-9--9--9--8--9-/13-13-13-11-13-11-9----|
  5---------------------------------------|
  6---------------------------------------|
  2:19seg "malos pensamientos"
  1---------------|
  2-11--10--14--16|
  3-x---x---x---x-|
  4-8---7---11--13|
  5---------------|
  6---------------|

- 2:23seg                  2:30seg
  1---------          ------------------|
  2---------          ------------------|
  3---------          ------------------|
  4--4-6-8--          --8-9-8-6--9-8-6--|
  5--2-4-6-- x 2 veces--6-7-6-4--7-6-4--|
  6---------          ------------------|

  2:53 "De rojo te ves bien, rojo te ves bien, de rojo
  te ves bienenenennen..."
             1|------|    1|-------|  1|--------| 1|-------|
  1|-----|   2|------|    2|-------|  2|--------| 2|-------|
  2|-----|   3|------|    3|-------|  3|--------| 3|-------|
  3|-----|   4|------|    4|-------|  4|--------| 4|-------|
  4|-x4--|   5|-xx6--|    5|---2-2-|  5|-4-4-4-4| 5|-4-4-4-|
  5|-x2--|   6|-xx4--|    6|---0-0-|  6|-2-2-2-2| 6|-2-2-2-|


  3:10seg "Lo que pedias yo te lo di, lo ke tenia te lo
  ofreci..."
  1|----------------|
  2|----------------|
  3|-4--------------|
  4|-4---6---2---4--| va masomenos lento.
  5|-2---6---2---4--|
  6|-----4---0---2--|

  3:26seg "(corito) Porke tu, muerta ahi estas,
  muerta estaras..."
  1|----------------|
  2|----------------|
  3|-4--------------|
  4|-4---6---2---4--| ESTO YA VA EN EL TIEMPO NORMAL
  5|-2---6---2---4--|
  6|-----4---0---2--|



         ...Y DE LA GASOLINA RENACIO EL AMOR

 TURNING:BEMOL

Esto se toca acústico: "si lo que quieres es que te pida perdon..."

eb|-000--333--222222---|
Bb|-333--333--333333---|
Gb|-xxx--000--000000---| (x4)
Db|-222--000--000000---|
Ab|-222--222--xxxxxx---|
Eb|-000--333--222222---|

 Esto ya se toca metalero:

Eb|---------------------------------------|
Bb|---------------------------------------|
Gb|---------------------------------------|
Db|-22-2----------------------------0---0-|
Ab|-22-2-2-2-2-2-22-2-33-3-3-3-3----------|
Eb|-00-0-2-3-3-3-33-3-55-5-5-5-5-0-2-0-2--|

Eb|-------------------------------------------------------|
Bb|-------------------------------------------------------|
Gb|----------------------------------------2--2--2--2-----|
Db|-22-2----------------------------0---0-----------------|
Ab|-22-2-2-2-2-2-22-2-33-3-3-3-3--------------------------|
Eb|-00-0-2-3-3-3-33-3-55-5-5-5-5-0-2-0-2------------------|

verso 1:" tras asi sera pues nunca nada te falto..."
Eb|-----------------------------------|
Bb|-----------------------------------|
Gb|-----------------------------------|(x4)
Db|-22-2----------------4--7--4--5--4-|
Ab|-22-2-2-2-2-2-22-2-55-55-55-55-55--|
Eb|-00-0-2-3-3-3-33-3-----------------|


precoro: "razones hay..."

Eb|-0*--3--3p2--0*--3--3----2*--|
Bb|-0*--3--3*---0*--3--3----3*--|
Gb|-0*--0--2*-2-0*--0--0----2*--|
Db|-2*--0-----0-2*--0-----0-0*--|
Ab|-2*--2-------2*--2-----------|
Eb|-0*--3-------0*--3-----------|

Coro 1 :" te juro que si estas en fuego"

Eb|---------------------------------|
Bb|---------------------------------|
Gb|-55555--------777777-7/9-9-7-5---|
Db|-55555-55555--777777-7/9-9-7-5---| (x3)
Ab|-33333-55555--555555-5/7-7-5-3---|
Eb|-------33333---------------------|

Eb|------------------------------------|
Bb|------------------------------------|
Gb|-55555-------77777777-55555-------7-|
Db|-55555-55555-77777777-55555-55555-7-|
Ab|-33333-55555-55555555-33333-55555-5-|
Eb|-------33333----------------33333---|

Continuación :

Eb|---------------------------------------|
Bb|---------------------------------------|
Gb|---------------------------------------|
Db|-22-2----------------------------0---0-|
Ab|-22-2-2-2-2-2-22-2-33-3-3-3-3----------|
Eb|-00-0-2-3-3-3-33-3-55-5-5-5-5-0-2-0-2--|

verso 2:"es muy dificil que todo esto pase ya..."

Eb|-----------------------------------|
Bb|-----------------------------------|
Gb|-----------------------------------|(x4)
Db|-22-2----------------4--7--4--5--4-|
Ab|-22-2-2-2-2-2-22-2-55-55-55-55-55--|
Eb|-00-0-2-3-3-3-33-3-----------------|


precoro:"en energia negativa..."

Eb|--------------------|
Bb|--------------------|
Gb|------------0-0-0-0-|
Db|--0----0---4-4-4-4--|  (x4)
Ab|-2-2--2-2-5---------|
Eb|0----3--------------|

Coro 2:"te juro que si estas en fuego..."

Eb|---------------------------------|
Bb|---------------------------------|
Gb|-55555--------777777-7/9-9-7-5---|
Db|-55555-55555--777777-7/9-9-7-5---| (x3)
Ab|-33333-55555--555555-5/7-7-5-3---|
Eb|-------33333---------------------|

Segunda parte del coro 2:

Eb|----------------------|
Bb|----------------------|
Gb|-55555-------77777777-|
Db|-55555-55555-77777777-|(x4)
Ab|-33333-55555-55555555-|
Eb|-------33333----------|

Eb|---------------|
Bb|---------------|
Gb|-55555-------7-|
Db|-55555-55555-7-|
Ab|-33333-55555-5-|
Eb|-------33333---|

**** acompañamiento de la segunda parte del coro ****
Eb|--------------------------------------------------------------|
Bb|-12-10-12----12-10-12-10v--13-12-10--12-10-12----12-10-12-10v-|
Gb|---------12v---------------------------------12v--------------|
Db|--------------------------------------------------------------|
Ab|--------------------------------------------------------------|
Eb|--------------------------------------------------------------|

Eb|---------------------------------------------------|
Bb|-12-10-12----12-10-12-10v--13-12-10--12-10-12------|
Gb|---------12v---------------------------------12v---|
Db|---------------------------------------------------|
Ab|---------------------------------------------------|
Eb|---------------------------------------------------|

-----------------------------------------------------------------------------|
-----------------------------------------------------------------------------|



Keywords / Palabras clave: DISCULPA LOS MALOS PENSAMIENTOS, Panda, letras, letra, acordes, canciones, cancion, grupo, banda, cantante, tablatura, partitura, tocar con guitarra, armónica, teclado, bajo, ejecutar, bajar, mp3, música, chords, lyrics, versión, cover, piano, acrodes, acordes de DISCULPA LOS MALOS PENSAMIENTOS, Panda

Inicio | Artistas | Recursos | Buscar | AGREGA TU TABLATURA A 10ACORDES | Contacto

www.10acordes.com.ar - 2014© - 2014-09-02 01:01:44