letra, letras, acorde, acordes, tablatura, tablaturas, partitura, partituras de la canción don't cry de Guns N Roses, 41869

don't cry de Guns N Roses

Colaboración de (TAB)

(jc11rhm @ hotmail.com)          (Visitas: )

Ver don't cry de Guns N Roses en vista para impresión



¿Dudas de cómo es un acorde? Visitar la página cómo formar acordes en guitarra

Intro (Solo)

E|--------------------0----------------------------1-------------------------| 
B|-----------------------1---------------------3-------3---------------------|
G|----------------2---------2--------------2--------------2------------------|
D|-------------2---------------0------0-----------------------0--------------|
A|------0--------------------------------------------------------------------|
E|---3--------------------------------------------------------------3--------|


E|----------------3-----------------------------------------------0----------| 
B|-------------------3-----------------------------------------------1-------|
G|----------0------------0-------------0------0----------------2--------2----|
D|-------0---------------------------0------0---------------2--------------0-|
A|----2-----------------------0----3------2------3--2--0---------------------|
E|---------------------------------------------------------------------------|


E|--------------1---------------------3--------------------------------------| 
B|----------3------3---------------------------------------------------------|
G|------2-------------2------------------------------------------------------|
D|--0-----------------------------------------------2------------------------|
A|------------------------0-----2-------------------0------------------------|
E|---------------------------3-----------2--3--4-----------------------------|
  






Keywords / Palabras clave: don't cry, Guns N Roses, letras, letra, acordes, canciones, cancion, grupo, banda, cantante, tablatura, partitura, tocar con guitarra, armónica, teclado, bajo, ejecutar, bajar, mp3, música, chords, lyrics, versión, cover, piano, acrodes, acordes de don't cry, Guns N Roses

Inicio | Artistas | Recursos | Buscar | AGREGA TU TABLATURA A 10ACORDES | Contacto

www.10acordes.com.ar - 2014© - 2014-08-21 18:39:14