letra, letras, acorde, acordes, tablatura, tablaturas, partitura, partituras de la canción el condor pasa de el condor pasa, 41745

el condor pasa de el condor pasa

Colaboración de (TAB)

(adang_castillo @ hotmail.com)          (Visitas: )

Ver el condor pasa de el condor pasa en vista para impresión



¿Dudas de cómo es un acorde? Visitar la página cómo formar acordes en guitarra

el condor pasa 

e---------------------------------------0--------------------
B---------------------0------3--3--0------3--0---0-----------
G------------0---0--2------------------------------2p0--2p0--
D---2-1-2--4---4--------------------------------------------2
A-2----------------------------------------------------------
E------------------------------------------------------------
                                 

Este es el koro

e---0---0---0--3-3----2--0--3--0-------0------
B-0---3---3----------------------3---3---3--0-
G---------------------------------------------
D---------------------------------------------
A---------------------------------------------
E---------------------------------------------

e---0---0---0---0---0--3--0-------0----------------------
B-0---3---3---3-------------3---3---3--0---0-------------
G--------------------------------------------2p0--2p0----
D------------------------------------------------------2-
A--------------------------------------------------------
E--------------------------------------------------------                                           



Keywords / Palabras clave: el condor pasa, el condor pasa, letras, letra, acordes, canciones, cancion, grupo, banda, cantante, tablatura, partitura, tocar con guitarra, armónica, teclado, bajo, ejecutar, bajar, mp3, música, chords, lyrics, versión, cover, piano, acrodes, acordes de el condor pasa, el condor pasa

Inicio | Artistas | Recursos | Buscar | AGREGA TU TABLATURA A 10ACORDES | Contacto

www.10acordes.com.ar - 2014© - 2014-07-24 09:39:35