letra, letras, acorde, acordes, tablatura, tablaturas, partitura, partituras de la canción El mercado testaccio de Inti Illimani, 10960

El mercado testaccio de Inti Illimani

Colaboración de francisco gonzález (TAB)

(fco21219 @ latinmail.com)          (Visitas: 8123)

Ver El mercado testaccio de Inti Illimani en vista para impresión



¿Dudas de cómo es un acorde? Visitar la página cómo formar acordes en guitarra

Intro: G

Tablatura para Charango: (Sección 1)
     G                                                           D
E||-------------|--------------|--------------|---------------|--------------|------------|
A||----2--2--0--|--2-0-2----0--|-----2--2--0--|--2-0-2----2-3-|--5--5--5--3--|----5--0----|
E||-------------|--------------|--------------|---------------|--------------|------------|
C||-------------|--------------|--------------|---------------|--------------|------------|
G||-------------|--------------|--0-----------|---------------|--------------|------------|

                              G
--------------|------------|--------------|--------------|--------------|---------------|
--5--5--5--3--|----5--0----|--5--7--5--3--|--2--3--2--0--|--------------|--------------|
--------------|------------|--------------|--------------|--------------|--------------|
--------------|------------|--------------|--------------|-----4--4--3--|--4-3-4-------|
--------------|------------|--------------|--------------|--0-----------|-----------4--|

                              B7
-------------|--------------|------------|-------------|-------------|--------------|
-------------|--------------|------------|-------------|-------------|--------------|
-------------|--------------|------------|-------------|-------------|--------------|
-----4----7--|--6--4--3--4--|--2----0----|-------------|-------------|--------------|
--5----------|--------------|------------|--4----5--4--|----3--4--5--|--4--3--4--0--|

 Em                                                         B7
--------------|--------------|-------------|--------------|------------|-------------|
--------------|--------------|-------------|--------------|------------|-------------|
--0-----------|--------------|-------------|--------------|------------|-------------|
-----4--4--3--|--4-3-4-------|-----4----7--|--6--4--2--0--|------------|-------------|
--------------|-----------4--|--5----------|--------------|----4----3--|--4--5--4----|

                              E7                                       
--------------|-------------|------------|--------------|------------|-------------|
--------------|-------------|------------|--------------|------------|-------------|
--------------|-------------|------------|--------------|------------|---------4-4-|
--------------|-------------|------------|--------------|------------|-------------|
--3--4--5--4--|----3--4--5--|----4----3--|--4--5--4--7--|----5----4--|----2--------|

 Am                                                      B7 
--------------|------------|-------------|-------------|--------------|------------|
--------------|------------|-------------|-------------|--------------|------------|
--5--5--5--4--|----5--0----|--5--8----7--|----5----4-4-|--5--5--5--4--|----5--0----|
--------------|------------|-------------|-------------|--------------|------------|
--------------|------------|-------------|-------------|--------------|------------|

                             Em                           Em/D
-------------|------------|-------------|--------------|--------------|--------------|
-------------|------------|-------------|--------------|--------------|--------------|
--5--8----7--|----5----3--|----3--3--2--|--3-2-3----2--|--0--3--3--2--|--3-2-3----2--|
-------------|------------|-------------|--------------|--------------|--------------|
-------------|------------|-------------|--------------|--------------|--------------|

 A                              B7
--------------|--------------|-----------||
--------------|--------------|-----------||
--0--3--3--2--|--3-2-3----5--|--7--------||
--------------|--------------|-----------||
--------------|--------------|-----------||

Tablatura para Tiple: (Sección 2)

    B7                           G                  
E||--------------7-|----------|----------------|------------------|----------------|
B||------------7---|----------|----12--12--10--|--12-10-12----10--|----12--12--10--|
G||----------8-----|----------|----------------|------------------|----------------|
D||--------9-------|----------|----------------|------------------|----------------|

                       D
--------------------|------------------|--------------|----------------|----------------|
--12-10-12----12-13-|--15--15--15--13--|----15--------|--15--13----15--|--------15--13--|
--------------------|------------------|--------14----|----------------|--14------------|
--------------------|------------------|--------------|----------------|----------------|

  G                                                                         D
----------------|------------------|----------------|--------------------|------------------|
----12--12--10--|--12-10-12----10--|----12--12--10--|--12-10-12----12-13-|--15--15--15--13--|
----------------|------------------|----------------|--------------------|------------------|
----------------|------------------|----------------|--------------------|------------------|

                                                      Em
--------------|------12----------|------------------|------12--12--11--|--12-11-12--------|
----15--------|--15------15--13--|--12--13--12--10--|------------------|--------------12--|
--------14----|------------------|------------------|--12--------------|------------------|
--------------|------------------|------------------|------------------|------------------|

                                     B7
------12----15--|--14--12--11--12--|--------------|----------------|----------------|
--13------------|------------------|--15----13----|--12----13--12--|----11--12--13--|
----------------|------------------|--------------|----------------|----------------|
----------------|------------------|--------------|----------------|----------------|

                    Em
------------------|-----12--12--11--|--12-11-12--------|------12----15--|--14--12----------|
--12--11--12------|-----------------|--------------12--|--13------------|----------15--13--|
--------------12--|--9--------------|------------------|----------------|------------------|
------------------|-----------------|------------------|----------------|------------------|

 B7                                                                   E7
--------------|----------------|------------------|----------------|--------------|
----12----11--|--12--13--12----|--11--12--13--12--|----11--12--13--|----12----11--|
--------------|----------------|------------------|----------------|--------------|
--------------|----------------|------------------|----------------|--------------|

                                                   Am
------------------|--------------|--------------|-----------------|-------------|
--12--13--12--15--|----13----12--|----10----9-9-|--10--10--10--9--|----10-------|
------------------|--------------|--------------|-----------------|--------9----|
------------------|--------------|--------------|-----------------|-------------|

                               E7
----------------|----5----7--|----7--7--6--|--7-6-7----0--|----7----10--|--8--7--5--4--|
--10--13----12--|------------|-------------|--------------|-------------|--------------|
----------------|------------|-------------|--------------|-------------|--------------|
----------------|------------|-------------|--------------|-------------|--------------|

 Am                                                       B7
----5--5--4--|--5-4-5----0--|----5----8--|--7--5--4--5--|----5--5--4--|--5-4-5----0--|
-------------|--------------|------------|--------------|-------------|--------------|
-------------|--------------|------------|--------------|-------------|--------------|
-------------|--------------|------------|--------------|-------------|--------------|
     
                             Em                           Em/D
----5----8--|--7--5--3--2--|----3--3--2--|--3-2-3----5--|--7--7--7--6--|--7-6-7----10--|
------------|--------------|-------------|--------------|--------------|---------------|
------------|--------------|-------------|--------------|--------------|---------------|
------------|--------------|-------------|--------------|--------------|---------------|

 A                              B7
--9--9--9--8--|--9-8-9----12--|--11------------7-|----------|
--------------|---------------|--------------7---|----------|
--------------|---------------|------------8-----|----------|
--------------|---------------|----------9-------|----------|


Tablatura para Tiple: (Sección 3)

  G                                                                         D
----10--10--8--|--10--8--10---8----|----10--10--8--|--10--8--10----10-12-|--14--14--14--12--|
---------------|-------------------|---------------|---------------------|------------------|
---------------|-------------------|---------------|---------------------|------------------|
---------------|-------------------|---------------|---------------------|------------------|

                                                   G
----14--10----|--14--12----14--|--10----14--10--|----10--10--8--|--10----10--------|
--------------|----------------|----------------|---------------|-----13-------12--|
--------------|----------------|----------------|---------------|------------------|
--------------|----------------|----------------|---------------|------------------|

                                       D
----10--10--8--|--10----10----10-12-|--14--14--14--12--|----14--10----|--14--15--14--12--|
---------------|-----13-------------|------------------|--------------|------------------|
---------------|--------------------|------------------|--------------|------------------|
---------------|--------------------|------------------|--------------|------------------|

                     Em
--10--12--10--11--|--12--12--12--11--|--12-11-12--------|------12----15--|--14--12--11--12--|
------------------|------------------|--------------12--|--13------------|------------------|
------------------|------------------|------------------|----------------|------------------|
------------------|------------------|------------------|----------------|------------------|

  B7                                                                 Em       
--------------|----------------|----------------|------------------|-----12--12--11--|
--15----13----|--12----13--12--|----11--12--13--|--12--11--12------|-----------------|
--------------|----------------|----------------|--------------12--|--9--------------|
--------------|----------------|----------------|------------------|-----------------|

                                                        B7
--12-11-12--------|------12----15--|--14--12----------|--------------|----------------|
--------------12--|--13------------|----------15--13--|----12----11--|--12--13--12----|
------------------|----------------|------------------|--------------|----------------|
------------------|----------------|------------------|--------------|----------------|

                                      E7                                    
------------------|----------------|--------------|--------------13--|----12----10--|
--11--12--13--12--|----11--12--13--|----12----11--|--12--13--12--15--|----13----12--|
------------------|----------------|--------------|------------------|--------------|
------------------|----------------|--------------|------------------|--------------|

                 Am                                                       E7
----8-----5-7-|--8--8--8--7--|----8--------|--8--12----10--|----8----7--|----10--10--9--|
----10--------|--------------|-------10----|---------------|------------|---------------|
--------------|--------------|-------------|---------------|------------|---------------|
--------------|--------------|-------------|---------------|------------|---------------|

                                                  Am
--10-9-10----0--|----10----13--|--12--10--8--7--|----8--8--7--|--8-7-8----5--|----8----12--|
----------------|--------------|----------------|-------------|--------------|-------------|
----------------|--------------|----------------|-------------|--------------|-------------|
----------------|--------------|----------------|-------------|--------------|-------------|

                 B7                                                      Em     
--10--8--7--8--|----5--5--4--|--5-4-5----0--|----5----8--|--7--5--3--2--|----3--3--2--|
---------------|-------------|--------------|------------|--------------|-------------|
---------------|-------------|--------------|------------|--------------|-------------|
---------------|-------------|--------------|------------|--------------|-------------|

                Em/D                           A                             B7
--3-2-3----2--|--0--3--3--2--|--3-2-3----2--|--0--3--3--2--|--3-2-3----5--|--7------------7-||
--------------|--------------|--------------|--------------|--------------|-------------7---||
--------------|--------------|--------------|--------------|--------------|-----------8-----||
--------------|--------------|--------------|--------------|--------------|---------9-------||


(Sección 4): Se repiten acordes Sección 1

Coda:
A - Em/D //

Acordes usados:
B7:    2|0|2|1|2|-
E7:    0|3|1|2|2|0
Em/D:  0|0|0|0|-|-



Keywords / Palabras clave: El mercado testaccio, Inti Illimani, letras, letra, acordes, canciones, cancion, grupo, banda, cantante, tablatura, partitura, tocar con guitarra, armónica, teclado, bajo, ejecutar, bajar, mp3, música, chords, lyrics, versión, cover, piano, acrodes, acordes de El mercado testaccio, Inti Illimani

Inicio | Artistas | Recursos | Buscar | AGREGA TU TABLATURA A 10ACORDES | Contacto

www.10acordes.com.ar - 2014© - 2014-04-25 04:28:46