letra, letras, acorde, acordes, tablatura, tablaturas, partitura, partituras de la canción El sueño de la gitana de Rata Blanca, 41674

El sueño de la gitana de Rata Blanca

Colaboración de sólo el solo (TAB)

(leviatan_xb @ hotmail.com)          (Visitas: )

Ver El sueño de la gitana de Rata Blanca en vista para impresión



¿Dudas de cómo es un acorde? Visitar la página cómo formar acordes en guitarra

bueno ps aca sta el solo de el sueño de la gitana un temón de walter giardino,no saké toda la cancion, pero con esto es suficiente para sorprender a todos, por lo menos para poner huevitos al baterista, al vocalista, xq el guitarrista tiene k darse su lugar....bueno ya muxo chamullo ahi esta ps...

G----5(7)(7)-8-7h8p7-5-5(7)-8-7h8p7-5(7)-5-3h5p3-2-3-2-0
D---------------------------------------------------
A-5/------------------------------------------------

B-------------------------------------------6--------
G-5h7-777-5-77-5-7777-5-7-5-8-7h8p7-5-5(7)-8-8-5(7)-5
D--------------------------------------------------8-7-8-7-5vvv

B----------------------------8-6---6----------------
G------------------5---5-7-8----8-7---8-7-5-7vvv----
D-7-5-7-5-7-8-5-7-8-7-8-----------------------------
A------8--------------------------------------------

--------------6----6-8--6-8-10-8-6--8-6------------
B-7-8-10-7-8-10-8-10---10----------10---------------
G-----------------------------------------10-8-7----

e-(11p8--13p8-)-x2--11p8--(6p3-5p3-)-x2-6p3---------
B-(-----8----8)---------8-(---3---3)-------3--------

e-6h9p6--9h12p9--12h15p12--15h18p15--15--14(16)-12-14vvv
B------8-------11--------14--------17---------------

e-(8-6-5)-x8--(10-8-6)x8-(5-3-2)x7-(6-5-3-----)x2---
B----------------------------------(-----6-4-3)---6(8)

e-(17(19)17p15-13/15)x2-17(19)-17-15-12-15-17-15h17p15-14-11-10

e-8-10-11-8vv-11-10-8----10-8-------8---------------
B--------------------11vv----11-10vv-11-10-11vv-----

e-8-10-11/8-17(18)-13-11-10-14(15)-8-10-11-8-10-11--

e-15p12--15h18p15---18h21p18--15h18p15--14(16)-14---
B------14---------17--------20--------17------------
G---------------------------------------------------
D-------------------------------------------------5(7)vvv


nada mas para terminar...YO TE KIERO MUXO AMIA, SIN TI NO PUEDO VIVIR....SL



Keywords / Palabras clave: El sueño de la gitana, Rata Blanca, letras, letra, acordes, canciones, cancion, grupo, banda, cantante, tablatura, partitura, tocar con guitarra, armónica, teclado, bajo, ejecutar, bajar, mp3, música, chords, lyrics, versión, cover, piano, acrodes, acordes de El sueño de la gitana, Rata Blanca

Inicio | Artistas | Recursos | Buscar | AGREGA TU TABLATURA A 10ACORDES | Contacto

www.10acordes.com.ar - 2014© - 2014-10-25 20:14:01