letra, letras, acorde, acordes, tablatura, tablaturas, partitura, partituras de la canción En el muelle de San Blas (unplugged) de Maná, 10252

En el muelle de San Blas (unplugged) de Maná

Colaboración de Elquyn Gomez (TAB)

(elquyn_lider @ yahoo.com)          (Visitas: 18978)

Ver En el muelle de San Blas (unplugged) de Maná en vista para impresión



¿Dudas de cómo es un acorde? Visitar la página cómo formar acordes en guitarra

Principalmente esta canción esta arreglada para tocarse con dos guitarras
una lleva los acordes normales y otra puntea, (en el concierto acústico solo
toca Sergio la guitarra punteando a su gusto, toda la canción).


Intro

      Em             A           D            G
e|------------0-----------0----------2-----------3|
B|-------0------------2----------3------------0---|
G|-----0---0--------2---2------2---2--------0---0-|
D|---------------------------0--------------------|(la primera guitarra sola )
A|---------------0--------------------------------|
E|--0------------------------------------3--------|

Riff1
      Em                 A              D            G
e|---------7-------------5--------------5----------------3---------|
b|-----8------8-------5-----5-------5-------5--------3-------2-----|
g|---9---9-9---9---6-6-6---6---7---7---7---7----4---4---3---3---|
d|-----------------------------------------------------------------|
a|-----------------------------------------------------------------|
E|--0-------------5-------------?----------------3-----------------|


sola en el olvido, sola con su espíritu x 2veces

Riff1
inicia el bajo

Em                 A                     D                         G
Ela despidió a su amor, el partió en un barco en el muelle de san Blas

Em                 A               D                    G
El juro que volvería y empapada en llanto ella juro que esperaría
Em                 A
miles de lunas pasaron, y siempre ella estaba en el muelle esperando
Em                 A                         D              G
muchas tardes se anidaron, se anidaron en su pelo y en sus labios, uhhhhhhhh

(empieza a rasguear los tonos como en la intro)
Em                 A                 D                      G
llevaba el mismo vestido y por si el volviera no se fuera a equivocar 
Em                  A                
los cangrejos le mordían, su ropaje, su tristeza y su ilusión

y del tiempo se escurrió , y sus ojos se le llenaron de amaneceres

y del mar se enamoro, y su cuerpo se enraizó en el muelle





Coro
(se usan los tonos pero punteándolos)
D                A
Sola, sola en el olvido (riff2)
D                 A
Sola, sola con su espíritu(riff2)
D                 A
Sola, sola con su amor el mar(riff2)
G    A                  D
Sola, en el muelle de San Blas(riff3)

Riff2
    D            A               D              A
e|--------1--------------0--------------1---------------0-------|
b|------3----3-------2-------2-------3------3-------2-------2---|
g|----2-2-2-2---2---2---2---2---2---2--2---2---2---2---2---2----|
d|--0----------------------------0------------------------------|
a|---------------0------------------------------0---------------|
E|--------------------------------------------------------------|
Riff3   
 G               A                  D
E|----------1----------------0---------2-------|
B|------0-------0--------2--------2----3-------|
G|----0---0---0---0----2---2----2---2--2-------|
D|-------------------------------------0-------|
A|------------------0------------------x-------|
E|--3----------------------------------x-------|

en esta parte se repite la intro o se tocan sus tonos
(háganlo como mas les guste)

Em,D,A,G,D x2
(riff 1)

Em             D                    A                G
 Su cabello se blanqueo pero ningún barco a su amor le devolvía
Em                D         A                    G
Y en el pueblo le decían , le decían la loca del muelle de San Blas
Em             D             A                   G 
Y una tarde de abril la intentaron  trasladar al manicomio
Em             D            A                  G
Nadie la pudo atrapar y del mar nunca jamás la separaron

Coro
Interludio o brigde
(aquí se tocan los tonos de las estrofas tantas veces sea necesario para regresar a la canción)
D,A x 3 y la ultima G,A,D
(esta parte es como en el coro pero solo tocan la guitarra y la voz principal de la canción)
Sola en el olvido(riff2) 
Sola con su espiritu(riff2)
Sola con su amor el mar(riff3)
Coro(con todos los instrumentos tocando)


Coda( final)
Aquí se tocan los tonos en sus octavas altas pero no con todas las cuerdas)

    A       D     G     (?)
E|--5-5----5-5----3-3----3-3------|
B|--5-5----5-5----3-3----3-3------|   (esto por 4 veces)
G|---6-6----7-7----4-4----4-4-----|
D|---7-7----7-7----5-5----4-4-----|
A|---x-x----x-x----x-x----x-x-----|
E|---x-x----x-x----x-x----x-x-----|
(La primera guitarra puede hacer esto mientras la segunda toca los tonos)
D                          G
Se quedo, se quedo ,sola , sola
D                                      G
Se quedo, se quedo con el sol y con el mar
D          
Se quedo ahí , se quedo hasta el fin 
G                                      D
Se quedo ahí, se quedo en el muelle de San Blas
G                       D    
Oh no no no , sola sola se quedo

De aquí en adelante se toca el chasqueo hasta el final cuando se queda
en fondo el sistema de cuerdas (violines y chelos)

Transcripcion por Elquyn Gomez
Elquyn_lider85@yahoo.com



Keywords / Palabras clave: En el muelle de San Blas (unplugged), Maná, letras, letra, acordes, canciones, cancion, grupo, banda, cantante, tablatura, partitura, tocar con guitarra, armónica, teclado, bajo, ejecutar, bajar, mp3, música, chords, lyrics, versión, cover, piano, acrodes, acordes de En el muelle de San Blas (unplugged), Maná

Inicio | Artistas | Recursos | Buscar | AGREGA TU TABLATURA A 10ACORDES | Contacto

www.10acordes.com.ar - 2014© - 2014-12-21 18:18:42