letra, letras, acorde, acordes, tablatura, tablaturas, partitura, partituras de la canción ENTER SANDMAN de metallica, 41752

ENTER SANDMAN de metallica

Colaboración de mirenlo (TAB)

(jeffersonmauriperez @ yahoo.com)          (Visitas: )

Ver ENTER SANDMAN de metallica en vista para impresión



¿Dudas de cómo es un acorde? Visitar la página cómo formar acordes en guitarra

Intro:   (Play 12 times)
======

1|---------------------------------------------------------------------------
2|---------------------------------------------------------------------------
3|---------------------------------------------------------------------------
4|------------5--------------------------------------------------------------
5|--------7---------------7--------------------------------------------------
6|----0-----------6---5------------------------------------------------------


Rhythm Fill 1:
==============



1|---------------------------------------------------------------------------
2|---------------------------------------------------------------------------
3|---------------------------------------------------------------------------
4|---------------------------------------------------------------------------
5|--2---------------------------/7------------------------------/7-----------
6|--0---0---0---0---0---0---0--------0---0---0---0---0---0---0---------------

                                     |-------------3x------------|





1|---------------------------------------------------------------------------
2|---------------------------------------------------------------------------
3|---------------------------------------------------------------------------
4|---------------------------------------------------------------------------
5|----------7------------------3\2-------------7-------------------3\2-------
6|--0---0------6---0---0---0---1\0-----0---0-------6---5---0---0---1\0-------

    |-------------4x-------------|     |--------------8x-------------|




Keywords / Palabras clave: ENTER SANDMAN, metallica, letras, letra, acordes, canciones, cancion, grupo, banda, cantante, tablatura, partitura, tocar con guitarra, armónica, teclado, bajo, ejecutar, bajar, mp3, música, chords, lyrics, versión, cover, piano, acrodes, acordes de ENTER SANDMAN, metallica

Inicio | Artistas | Recursos | Buscar | AGREGA TU TABLATURA A 10ACORDES | Contacto

www.10acordes.com.ar - 2014© - 2014-09-23 00:58:36