letra, letras, acorde, acordes, tablatura, tablaturas, partitura, partituras de la canción Esta Saliendo el Sol de Intoxicados, 11879

Esta Saliendo el Sol de Intoxicados

Colaboración de Pablito Gabriel (TAB)

(Pablitogabriel @ hotmail.com)          (Visitas: 4620)

Ver Esta Saliendo el Sol de Intoxicados en vista para impresión



¿Dudas de cómo es un acorde? Visitar la página cómo formar acordes en guitarra

arregle un par de cosas que creo que estaban mal
------------------------------------------------------------------------------------------------------------
INTRO:
    El Organo En Guitarra
e|-----------------------------|
B|-----------------------------|
G|-(/2)-(4)-(6)-(7)-(6)-6/2----|
D|-----------------------------|
A|-----------------------------|
E|-----------------------------|

------------------------------------------------------------------------------------------------------------

Verso 1:
e|---------------|
B|---------------|
G|---------------| (riff 1)
D|---------------|
A|---------------|
E|-0-0-4-5-2-5---|

e|----------|
B|----------|
G|----------| (riff 2)
D|----------|
A|----------|
E|-0-5-4-2--|

   El Organo de Fondo                        
e|------------------------------|         e|---------|           e|--------------------------------|
B|------------------------------|         B|---------|           B|--------------------------------|
G|-(/2)-(4)-(6)-(7)-(6)-(4)-(2)-|  x2     G|-(2)-(4)-|  lo sigue G|--------------------------------|   
D|------------------------------|         D|---------|    la     D|--------------------------------|
A|------------------------------|         A|---------|  guitarra A|-12-12-12-12-11-9-7-9-7--(7)----|
E|------------------------------|         E|---------|           E|-10-10-10-10-9--7-5-7-9--(5)----|
                                                                  ¨...y me invito a estar con ella...¨
                                                                    
(riff 1)  la               mi     (riff 2)
        Esta saliendo el sol que es
fa#m        re 
sin duda mi dios
la                 mi    
pero no estoy apto para aprender hoy
fa#m        re 
de su sabiduria
la                   mi
porque la luna aparecio
                           
y me invito a estar con ella hasta que vuelvas vos

------------------------------------------------------------------------------------------------------------
Verso 2:

                  sol la mi 
e|-------------------------|
B|-----14-15-17------------|
G|-/11-13-14-16------------| (riff 3)
D|-----------------4/6-(2)-|
A|-----------------2/4-(0)-|
E|-------------------------|

(riff 1)  la               mi        (riff 2)
          Esta saliendo el sol que es
fa#m        re 
sin duda mi dios
la                 mi   
y aunque no ceree un ojo en toda la semana
fa#m                   re(re-do#m-sim-la) 
y tenga ganas de desmayarme en la cama
la                   mi         re   (riff 3)
voy a salir a recibir su bendicion oh dios

------------------------------------------------------------------------------------------------------------

Estribillo:

(riff 1)   la                  mi 
         Padre sol nuestro que estas en los cielos
 fam#        re(re-do#m-sim-la) 
guiame si no esta bien la vida que llevo
 la              mi 
no dejes nunca de brillar
 fam#              re(re-do#m-sim-la) 
porque eso me pone bien cuando estoy un poco mal
 la               mi             fa#              (riff 3)
la luz nuestra de cada dia danosle hoy que asi sea amen.

 
------------------------------------------------------------------------------------------------------------

Solo de guitarra
(riff 1)
La-Mi-Fam#-Re x2  La-Mi-Fam#- Sol/La/Mi



e<------------------------------------------------------------------------------------------------------------>
B<--------5-5--------5-5--7-(5v)-------10-9-7----------------------------------2------------------------------>
G<--2/4h6------2/4h6--------------------------9-(7v)---7-9-9-(6v)-4h6-4--2-4-4---4---6/(2v)------------------->
D<------------------------------------------------------------------------------------------------------------>
A<------------------------------------------------------------------------------------------------------------>
E<------------------------------------------------------------------------------------------------------------>


e<--------5-4-2--------------------4--------------------------------7/9--(5)------------------------------------->
B<--3--2---------5---2-3-5-3-2-------5-7-5---------14--15--17-------7/9--(5)-------------------------------->
G<--2--2-----------------------4-2-------------/11-13--14--16------------------------------------------->
D<------------------------------------------------------------------------------------------------------------>
A<------------------------------------------------------------------------------------------------------------>
E<------------------------------------------------------------------------------------------------------------>


------------------------------------------------------------------------------------------------------------

Solo De Armonica (La-Mi-Fam#-Re x2  La-Mi-Fam#- Sol/La/Mi)

------------------------------------------------------------------------------------------------------------

Verso 3
(riff 1)  la               mi        (riff 2)
         Ya esta saliendo el sol que es
fa#m         re 
sin duda mi dios
la                 mi   
y aunque no ceree un ojo en toda la semana
fa#m                    re(re-do#m-sim-la)
y tenga ganas de desmayarme en la cama
la                   mi          re      (riff 3)
voy a salir a recibir su bendicion oh dios

------------------------------------------------------------------------------------------------------------

Estribillo 2:

(riff 1)   la                  mi 
         Padre sol nuestro que estas en los cielos
 fam#             re(re-do#m-sim-la)
guiame si no esta bien la vida que llevo
 la              mi 
no dejes nunca de brillar
 fam#             re(re-do#m-sim-la)
porque eso me pone bien cuando estoy un poco mal
 la               mi             re              (riff 3)
la luz nuestra de cada dia danosle hoy que asi sea amen.

------------------------------------------------------------------------------------------------------------

Solo de Armonica:  La-Mi-Fam#-Re x3

------------------------------------------------------------------------------------------------------------

Solo De Guitarra 2

e<------------------------------------------------------------------------------------------------------------>
B<--17b---17b--17b--17b--17b--17b----------------------------------------------------------------------------->
G<-----16---16----16---16---16---16-16/18--16--14h16h18-14h16h18-14h16h18-14h16h18-14h16h18-14--(14)---------->
D<------------------------------------------------------------------------------------------------------------>
A<------------------------------------------------------------------------------------------------------------>
E<------------------------------------------------------------------------------------------------------------>


e<------------------------------------------------------------------------------------------------------------>
B<-------15-17-15-19b-17-15-17---(21)---21h19h17-------------------------------------------------------------->
G<-14-16-----------------------------------------21h19h18-19--18/19-18---------------------------------------->
D<-------------------------------------------------------------------------5/7-7--5/7-7---7/9-9--7/9-9-------->
A<------------------------------------------------------------------------------------------------------------>
E<------------------------------------------------------------------------------------------------------------>

e|--------------------------------|
B|--------------------------------|
G|--------------------------------|   
D|--------------------------------|
A|-12-12-12-12-11-9-7-9-7--(7)----|
E|-10-10-10-10-9--7-5-7-9--(5)----|
   

 El Organo En Guitarra
e|-----------------------------|
B|-----------------------------|
G|-(/2)/(7)-(6)-6/2----|
D|-----------------------------|
A|-----------------------------|
E|-----------------------------|


aguante EL GHETTO DEL REY rnr!!!!



Keywords / Palabras clave: Esta Saliendo el Sol, Intoxicados, letras, letra, acordes, canciones, cancion, grupo, banda, cantante, tablatura, partitura, tocar con guitarra, armónica, teclado, bajo, ejecutar, bajar, mp3, música, chords, lyrics, versión, cover, piano, acrodes, acordes de Esta Saliendo el Sol, Intoxicados

Inicio | Artistas | Recursos | Buscar | AGREGA TU TABLATURA A 10ACORDES | Contacto

www.10acordes.com.ar - 2014© - 2014-10-31 16:34:01