letra, letras, acorde, acordes, tablatura, tablaturas, partitura, partituras de la canción Europa Intro de Santana, 41910

Europa Intro de Santana

Colaboración de Es el principioe la rola y mi segundoab , lo saque con una acustia y por eso me detuvieronos efectos pero creo q esta mu (TAB)

(tecnomasters @ hotmail.com)          (Visitas: )

Ver Europa Intro de Santana en vista para impresión



¿Dudas de cómo es un acorde? Visitar la página cómo formar acordes en guitarra

|-----10h11p10---------------7-9-7-----
|---13--------13-11-9v---9-10-----9/7--
|-12------------------------------9/7--
|-------------------9v-----------------
|--------------------------------------
|--------------------------------------

|-------------------------------
|6-8-10-10/12-10--10-8----------
|---------------------9h10--9h10
|-------------------------------
|-------------------------------
|-------------------------------


|------------------------------------
|-5-7-9-9/11-9--9--------------------
|----------------10-8----------------
|---------------------9-8-7----------
|--------------------------8-7-6-----
|-------------------------------7-6-5


|-----10h11p10---------------7-7h9h7---------
|---13--------13-11-9v---9-10--------10-9-7v-
|-12-----------------------------------------
|-------------------9v-----------------------
|--------------------------------------------
|--------------------------------------------


|-------------------------------
|6-8-10-10/12-10--10-8----------
|---------------------9h10--9h10
|-------------------------------
|-------------------------------
|-------------------------------


|--------------------
|-----8-8h108--8-6-8b
|-9-10---------------
|--------------------
|--------------------
|--------------------


|-------15b-15b-15-12-13h15------
|----13---------------------13-15
|-12-----------------------------
|--------------------------------
|--------------------------------
|--------------------------------



Keywords / Palabras clave: Europa Intro, Santana, letras, letra, acordes, canciones, cancion, grupo, banda, cantante, tablatura, partitura, tocar con guitarra, armónica, teclado, bajo, ejecutar, bajar, mp3, música, chords, lyrics, versión, cover, piano, acrodes, acordes de Europa Intro, Santana

Inicio | Artistas | Recursos | Buscar | AGREGA TU TABLATURA A 10ACORDES | Contacto

www.10acordes.com.ar - 2014© - 2014-04-24 02:37:39