letra, letras, acorde, acordes, tablatura, tablaturas, partitura, partituras de la canción fear of the dark de Iron maiden, 42344

fear of the dark de Iron maiden

Colaboración de (TAB)

(juani_lopez_32 @ hotmail.com)          (Visitas: )

Ver fear of the dark de Iron maiden en vista para impresión



¿Dudas de cómo es un acorde? Visitar la página cómo formar acordes en guitarra

buehh...porfin la termine espero q les sirva es el principio nadamas
(esta muy buena con la acustica(pero es dificil))


1|----------------------------------------------------------------|
2|----------------------------------------------------------------|
3|-7-----7-7-9-9-10-10-9-9-7-7-9-9---5-----5-5-7-7-9-9-7-7-5-5-9-5|
4|---7-7-------------------------------5-5------------------------|
5|----------------------------------------------------------------|
6|----------------------------------------------------------------| x2

1|----------------------------------------------------------------|
2|----------------------------------------------------------------|
3|-3-3------5-5-7-7-5-5-3-3-7-3---5-5------5-5-7-7-9-9-7-7-5-5-7-7|
4|------3-3--------------------------5-5--------------------------|
5|----------------------------------------------------------------|
6|----------------------------------------------------------------|

1|--------------------|-------------------6----|-------------------|
2|------5-6--8--6--5--|---5----3---5--5-------7|-----5-6-----6--5--|
3|---7---------------5|-5----5-----------------|---7--------------5|
4|-7------------------|------------------------|-7-----------------|
5|--------------------|------------------------|-------------------|
6|--------------------|------------------------|-------------------|




Keywords / Palabras clave: fear of the dark, Iron maiden, letras, letra, acordes, canciones, cancion, grupo, banda, cantante, tablatura, partitura, tocar con guitarra, armónica, teclado, bajo, ejecutar, bajar, mp3, música, chords, lyrics, versión, cover, piano, acrodes, acordes de fear of the dark, Iron maiden

Inicio | Artistas | Recursos | Buscar | AGREGA TU TABLATURA A 10ACORDES | Contacto

www.10acordes.com.ar - 2014© - 2014-04-18 20:04:40