letra, letras, acorde, acordes, tablatura, tablaturas, partitura, partituras de la canción Fiesta Pagana de Mago De Oz, 12366

Fiesta Pagana de Mago De Oz

Colaboración de CJH (TAB)

(magnetic_o @ latinmail.com)          (Visitas: 3266)

Ver Fiesta Pagana de Mago De Oz en vista para impresión



¿Dudas de cómo es un acorde? Visitar la página cómo formar acordes en guitarra

HAY KE TOMAR EN CUENTA KE ALGUNOS ACORDES SE DEBERAN DE 
TOCAR UNA OCTAVA ARRIBA PARA DAR EL MATIZ DESEADO

INTRO Bm,Bm,A,A,Bm,Bm,A,D,D,A,Bm (LIMPIO)
      B5,B5,A5,A5,B5,B5,A5,D5,D5,A5,B5,A5 (DISTOR)

 B5         F5# 
Cuando despiertes un día
    E5           D5 A5   B5
Y sientas que no puedes mas
 B5               F5#    
que en el nombre del de arriba
    E5          F5#    
tu vida van a manejar


     D5                     A5
Si sientes que el miedo se pega a tu piel
     A5               B5
por ser comunero y justicia querer
   B5           E5            D5    A5 B5
si te rindes hermano, por ti nunca pensarás.


  B5        F5#
Cuando vayan a pedirte
 E5         D5 A5 B5
los diezmos a fin de mes
B5            F5#
y la santa inquisición
     E5         F5#    
te invite a confesar


   D5             A5
Entonces amigo tu alza la voz
A5             B5
di que nunca pediste opinión
  B5                 E5        D5 A5 B5 
y si es verdad que exíste un Dios que trabaja de sol a sol



----CORO----
B5
Ponte en pie
         A5 
alza el puño y ven
  G5
a la fiesta pagana
        F5#       E5   D5    B5
en la hoguera hay que beber
    B5
de la misma condición
           A5
no es el pueblo ni un señor
  G5
ellos tienen el clero
    F5#   E5  D5    B5
nosotros nuestro sudor

SE REPITE PARTE DE LA INTRO 

B5                          B5\A5
Si no hay pan para los tuyos
                       A5/B5
y ves muy gordo al abad
                        E5 / F5#
si su virgen viste de oro desnúdala

     D5       A5
Como van a silenciar
     A5            B5
al gilguero o al canario
     B5             E5
si no hay cárcel ni tumba
        D5 A5      B5
para el canto libertario

SE REPITE DE NUEVO EL CORO

ESTOS SON LOS ACORDES KE LLEVA LA 
PREPARACION PARA EL SOLO:   E5 A5/B5  E5 D5 A5 
(ESTOS ACORDES CAEN EN LOS REMATES SOLAMENTE)

LOS ACRODES DEL SOLO SON LOS MISMOS KE LOS DEL CORO 
(DOS VECES) Y LUEGO CAMBIA A B5,D5,A5,B5 (DOS VECES)
TODO ESTO PARA ACOMPAÑAR AL SOLO

LUEGO ENTRA LA GUITARRA LIMPIA CON:
D,A,A,Bm,Bm,E,D,A,Bm

TERMINA CON EL CORO

------SOLO-------

E----------------------------------------------7\---------------------------------------
B----------------------------------------------------------------11/12-10P7-------------
G---------------7-9P7---9BU(11)--9P7---------------9BU(11)-9P7--------------9P7---------
D-------------9-------9--------------9-9P7---7-----------------9-----------------0H9----
A-------4-5-7------------------------------9--------------------------------------------
E-4-5-7---------------------------------------------------------------------------------


E-----------------------------------------7--7H10P7-7H10P7--12P10--------10--12/14------
B----------------------7-10-7-------------------------------------12--12----------------
G-9/11-9-7---------7----------9-7-9-----------------------------------------------------
D----------9-----9---9--------------9-7-9-----------------------------------------------
A---------------------------------------------------------------------------------------
E-------------7-------------------------------------------------------------------------


ESTO ES EL FINAL DEL SOLO Y SE REPITE DOS VECES ACORDES (B,D,A,B)

E-14-14-14-14-17-15-14-12-------12------------------------------
B-------------------------15-15----15-14-14-15-14-12------------
G---------------------------------------------------------------
D---------------------------------------------------------------
A---------------------------------------------------------------
E---------------------------------------------------------------

JUAN CARLOS OCADIZ CRUZ 
18-XII-2001 00:08 hrs:



Keywords / Palabras clave: Fiesta Pagana, Mago De Oz, letras, letra, acordes, canciones, cancion, grupo, banda, cantante, tablatura, partitura, tocar con guitarra, armónica, teclado, bajo, ejecutar, bajar, mp3, música, chords, lyrics, versión, cover, piano, acrodes, acordes de Fiesta Pagana, Mago De Oz

Inicio | Artistas | Recursos | Buscar | AGREGA TU TABLATURA A 10ACORDES | Contacto

www.10acordes.com.ar - 2014© - 2014-07-25 17:14:17