letra, letras, acorde, acordes, tablatura, tablaturas, partitura, partituras de la canción Fray Santiago de Canciones Infantiles, 12618

Fray Santiago de Canciones Infantiles

Colaboración de Martin ruiz (BAS)

(esponjaman91 @ hotmail.com)          (Visitas: 15550)

Ver Fray Santiago de Canciones Infantiles en vista para impresión



¿Dudas de cómo es un acorde? Visitar la página cómo formar acordes en guitarra

Hola soy Martin y les envio esta cancion a todos los niños,
espero q les guste. La saque hace dos minutos.

e-------------------------
b8-10-12------------------
g------11-----------------  x 2
(Fray Santiago,Fray Santiago)

e------------------------
b-11-12-14--------------- x 2
g------------------------
(duerme usted?duerme usted?)

e------------------------
b14-16-14-12-11---------- x 2
g-------------11---------
(Suenan las campanas, suenan las campanas)

e------------------------
b------------------------
g-11-11------------------ x 2
D-11--------------------- 
(Din,Din,Don,Din,Din,Don)

Adios, que los chicos lo disfruten, cualquier cosa,
mi e-mail: esponjaman91@hotmail.com
AGUANTE CERRO, ARRIBA PARAGUAY Y AGUANTE OASIS!
DEDicada amis primos Joaquin, Cocho, Ale, Cami, Felipe,
Cecilita, fergor, y todos mis primos...



Keywords / Palabras clave: Fray Santiago, Canciones Infantiles, letras, letra, acordes, canciones, cancion, grupo, banda, cantante, tablatura, partitura, tocar con guitarra, armónica, teclado, bajo, ejecutar, bajar, mp3, música, chords, lyrics, versión, cover, piano, acrodes, acordes de Fray Santiago, Canciones Infantiles

Inicio | Artistas | Recursos | Buscar | AGREGA TU TABLATURA A 10ACORDES | Contacto

www.10acordes.com.ar - 2014© - 2014-09-19 12:30:05