letra, letras, acorde, acordes, tablatura, tablaturas, partitura, partituras de la canción Hermano kakuy de Los Carabajal, 13996

Hermano kakuy de Los Carabajal

Colaboración de Diego Segovia (TAB)

(ladiscepolo @ yahoo.com.ar)          (Visitas: 15393)

Ver Hermano kakuy de Los Carabajal en vista para impresión



¿Dudas de cómo es un acorde? Visitar la página cómo formar acordes en guitarra

Con ritmo de chcarera

Intro:
1----0-0-5--0-0-7--0-0-8---12--10--8---7--8----------
2--------------------------13--12--10--8--10---------
3----------------------------------------------------
4----------------------------------------------------
5----------------------------------------------------
6----------------------------------------------------


1----0-0-5--0-0-7--0-0-8---12--10--8---7--8--7-5-4---
2--------------------------13--12--10--8--10-8-7-5---
3----------------------------------------------------
4----------------------------------------------------
5----------------------------------------------------
6----------------------------------------------------
     Mi7
    Cuenta la gente

    allà en el pago
    Sol7
    lo sucedido
      Mi7          lam 
    entre dos hermanos

    Mi7
    Cuando el volvia

    de la jornada
    Sol7
    agua y comida
      Mi7          lam 
    jamàs encontraba

    Mi7
    Cansado un dia

    de soportarla
    Sol7
    la llevò al monte
      Mi7        lam 
    para castagarla

    Mi7
    Con triste grito

    busca a su hermano
    Sol7
    Kakuy se llama
      Mi7       lam 
    y vive penando

    Mi7
    Sobre de un àrbol

    ellà esperaba
    Sol7
    mientras el mozo 
      Mi7          lam 
    de allì se alejaba

    Mi7
    A sus reclamos

    los llevò el viento
    Sol7
    y en su garanta
      Mi7          lam 
    quejumbre y lamento

    Mi7
    De esta leyenda

    no hay que olvidarse
    Sol7
    que los hemanos 
      Mi7          lam 
    no dejen de amarse

    Mi7
    Con triste grito

    busca a su hermano
    Sol7
    Kakuy se llama
      Mi7       lam 
    y vive penando

  Eso es todo espero que lo disfruten
  dudas o comentarios a ladiscepolo@yahoo.com.ar
  Saludos a Nestor
                                   Diego



Keywords / Palabras clave: Hermano kakuy, Los Carabajal, letras, letra, acordes, canciones, cancion, grupo, banda, cantante, tablatura, partitura, tocar con guitarra, armónica, teclado, bajo, ejecutar, bajar, mp3, música, chords, lyrics, versión, cover, piano, acrodes, acordes de Hermano kakuy, Los Carabajal

Inicio | Artistas | Recursos | Buscar | AGREGA TU TABLATURA A 10ACORDES | Contacto

www.10acordes.com.ar - 2014© - 2014-10-22 08:53:47