letra, letras, acorde, acordes, tablatura, tablaturas, partitura, partituras de la canción Himno de la alegria de Música Clasica, 14152

Himno de la alegria de Música Clasica

Colaboración de alberto haro "genespunk" (TAB)

(genesel_real @ hotmail.com)          (Visitas: 60971)

Ver Himno de la alegria de Música Clasica en vista para impresión



¿Dudas de cómo es un acorde? Visitar la página cómo formar acordes en guitarra

HOLA  MUY BUENAS,  HEME  AKI OTRA, VEZ, SALTANDO DESDE  
EL PUNK, HASTA PONER UN TAB DE MUSIKA KLASIKA, Y ESKE 
ESTOS COMPAS, NO LE DAN  AL CLAVO, POR LO QUE AKI LES MANDO, 
EL REKINTEO DE ESTE HIMNO.... KAMARA SPERO LES  GUXTE...

------------------------------------------------------

PRIMERO KE NADA,  TODO LO QUE SE CANTA, VA ARRIBA , 
DE CADA PUNTEO,  EN  REALIDAD NO  ME  SÉ  BIEN  
LA  LETRA  PERO  LA  MUSIKA  ES  ASI...

|-----------------------------|
|-0-2-4-4-2-0---------0-0-----|
|-------------3-1-1-3-----3---| <<< RIFF 1>>>
|-----------------------------|
|-----------------------------|
|-----------------------------|

-------------------------------------------------------

|-----------------------------|
|-0-2-4-4-2-0---------0-------|
|-------------3-1-1-3---3--1--| <<< RIFF 2>>>
|-----------------------------|
|-----------------------------|
|-----------------------------|

-------------------------------------------------------

|------------------------------
|---0------0-2-0------0-2-0------4-4---
|-3---1--3-------1--3--------3-1------
|------------------------------
|------------------------------
|------------------------------


-------------------------------------------------------

|-----------------------------|
|-0-2-4-4-2-0---------0-------|
|-------------3-1-1-3---3--1--| <<< RIFF 2>>>
|-----------------------------|
|-----------------------------|
|-----------------------------|

------------------------------------------------------

Y  ESTO  ES  EL  FIN,  ASI  KE  SI  KIEREN  AKLARAR  ALGO 
MANDENME  UN  MAIL,  Y  PARA  CITAS  CON  CHICAS  TAMBIEN,  
KAMARA!!!!!


'genespunk'

 www.geocities.com/el_genes



Keywords / Palabras clave: Himno de la alegria, Música Clasica, letras, letra, acordes, canciones, cancion, grupo, banda, cantante, tablatura, partitura, tocar con guitarra, armónica, teclado, bajo, ejecutar, bajar, mp3, música, chords, lyrics, versión, cover, piano, acrodes, acordes de Himno de la alegria, Música Clasica

Inicio | Artistas | Recursos | Buscar | AGREGA TU TABLATURA A 10ACORDES | Contacto

www.10acordes.com.ar - 2014© - 2014-09-19 22:31:23