letra, letras, acorde, acordes, tablatura, tablaturas, partitura, partituras de la canción Historia de un amor de la Rondalla de Saltillo, 14234

Historia de un amor de la Rondalla de Saltillo

Colaboración de Fernando Lopez (TAB)

(ferna_lopez @ hotmail.com)          (Visitas: 6205)

Ver Historia de un amor de la Rondalla de Saltillo en vista para impresión



¿Dudas de cómo es un acorde? Visitar la página cómo formar acordes en guitarra

Intro:
  Em                       Am                B7      Em
|-3-----3-3-|-----3-3---------2-2-2-2-|-----2-2----------0-0-0-0-|
|---0-0-----|-0-0-----0-1-0-----------|------------0-------------|
|-----------|---------------2---------|-2-2------2---2-0---------|
|-2-----2-2-|-----2-----------0-----0-|-------0------------------|
|-----------|---------------0---------|----------------2-------2-|
|-----------|-------------------------|--------------------------|
   C             B7               Em  
|------0-0-----------------|---2---0--|
|------------------4-4-4-4-|-4---4----|
|--0-0-----0-2-0-----------|----------|
|----------------4---------|----------|
|--3-----3-------2-------2-|---2---2--|
|--------------------------|----------|

Em
Cómo contaré
                        Am 
aquí la historia de tan puro y gran amor
           B7          Em    
su luz profunda nos refleja su color
C                           B7
 la sencillez con que nos llena de calor, 
         Em
cómo empezar.
 Em
Con sólo llegar
                       Am
llenó de fuerza este vacío que viví
               B7                  Em
no habrá otro amor, no habrá otra luz ya para mí
C                       B7                 E7 
 sólo esta vez podré vivir amor así, amor así.
          Am         D7   
Llenó mi ser con algo especial
           G            C      
como escuchar un canto celestial
        B7            Em
y se quedó con tanto amor
                    Am              D7
que por doquier que voy ya no estoy solo
            G           C 
la llevo aquí, no se separa
           
          F#7             B7 
miro alrdedor, la llevo aquí.
 Em
Cuánto durará
                     Am
este momento que se vuelve eternidad
          B7           Em 
el dulce sueño que se vuelve realidad
C                         B7
 será la historia de mi amor hecho verdad
           Em
y allí estará.



Keywords / Palabras clave: Historia de un amor, la Rondalla de Saltillo, letras, letra, acordes, canciones, cancion, grupo, banda, cantante, tablatura, partitura, tocar con guitarra, armónica, teclado, bajo, ejecutar, bajar, mp3, música, chords, lyrics, versión, cover, piano, acrodes, acordes de Historia de un amor, la Rondalla de Saltillo

Inicio | Artistas | Recursos | Buscar | AGREGA TU TABLATURA A 10ACORDES | Contacto

www.10acordes.com.ar - 2014© - 2014-09-30 16:33:29