letra, letras, acorde, acordes, tablatura, tablaturas, partitura, partituras de la canción Homero de viejas locas, 14391

Homero de viejas locas

Colaboración de braian fernandez (TAB)

(braian0144 @ yahoo.com.ar)          (Visitas: 18714)

Ver Homero de viejas locas en vista para impresión



¿Dudas de cómo es un acorde? Visitar la página cómo formar acordes en guitarra

viejas locas-Homero 
Por BRAIAN
    
Intro x2

Guitarra 1:
    E        G#m          A              F#
E|-------------------------------------------------------|
B|-------------------------------------------------------|
G|-------------------------------------------------------|
D|-------------------------------------------------------|
A|-2-2-------6--6-6--6-6--7--7-7--7-7--7s2--2-2----------|
e|-0-0-0-2-0-4--4-4--4-4--5--5-5--5-5--5s4--4-4--2h4-2-0-|

2° guitarra entra en la segunda vez haciendo E G#m A B (arpegiado) 
1° guitarra aca hace la 2° vez del intro, la segunda hace este arpegio
   E     G#m          A      B
E|---0-------0----------5------0-----------|Las notas()las agregue
B|--0------4---4-------5------0-(0)--------|
G|-1------4------4----6------2---(2) 2/4---|
D|-------6---------------------------------|
A|-----------------------------------------|
e|-----------------------------------------|

Aca empieza la cancion con la guitarra 1 aciendo la intro
y la segunda arpegia asi:
2°guitarra
   E     G#m          A      F#
E|---0-------0----------5------2-----|
B|--0------4---4-------5------2-2----|
G|-1------4------4----6------5---5---|
D|-------6---------------------------|
A|-----------------------------------|
e|-----------------------------------|

       E                        G#m
Cuando sale del trabajo, Homero viene pensando
       A                        F#
que al bajar del colectivo, esquivara unos autos,
       E                        G#m
cruzara la avenida, se metera en el barrio,
       A                        F#
pasara dando saludos y monedas a unos vagos.

Aca 2°guitarra arpegia y usa G# Mayor
E                     G#
Dobla en el primer pasillo
A                F#
y ve que va llegando,
E                G#m
y un ascensor angosto
A                        F#
lo lleva a la puerta del rancho.

C#m         F#m
Dice que esta muy cansado
C#m         F#m
y encima hoy no pagaron
C#m         F#m
imposible bajarse de esta rutina
A                     B
y se pregunta ''Hasta Cuando''?


Se hace dificil siendo obrero hacerse cargo del pan
de tu esposa, tus hijos, del alquiler y algo mas
y poco disfruta
sus dias pensando como hara,
si en ese empleo no pagan y cada vez le piden mas

Que injusticia que no se valore
la eficacia y responsibiladad
porque el hoy se mato pensando
y es lo mismo que uno mas

Homero esta cansado,
come y se quiere acostar
vuelve amanecer y entre diario mate
se pregunta ''Cuanto mas''?

Esto lo hace con sol Mayor:

Y es asi,
la vida de un obrero es asi,
la vida en un barrio es asi
y pocos son los que van a zafar, ay....
Y es asi,
aprendemos a ser felices asi,
la vida del obrero es asi
y pocos son los que van a zafar.

Solo Saxo: Sobre |La Si| X 8
y una guitarra al final hace esto sobre pentatonica de Si 
E|--------------------|
B|-----7--------------| Repite varias veces
G|--9^---9^-9p7---7~--|
D|--------------9-----|
A|--------------------|
e|--------------------|

Acordes:

E		G#m		A		B 
E|-0-|		E|-4-|		E|-5-|		E|-2-|  
B|-0-|		B|-4-|		B|-5-|		B|-4-|     
G|-1-|          G|-4-|		G|-6-|		G|-4-|     
D|-2-|		D|-6-|		D|-7-|		D|-4-|   
A|-2-|		A|-6-|		A|-7-|		A|-2-|     
e|-0-|		e|-4-|		e|-5-|		e|-X-|     

G#              C#m             F#m             F#
E|-4-|		E|-4-|		E|-2-|          E|-2-|
B|-4-|		B|-5-|		B|-2-|          B|-2-|
G|-5-|		G|-6-|		G|-2-|          G|-3-|
D|-6-|		D|-6-|		D|-4-|          D|-4-|
A|-6-|		A|-4-|		A|-4-|          A|-4-|
e|-4-|		e|-X-|		e|-2-|          e|-2-|


braian@yahoo.com.ar



Keywords / Palabras clave: Homero, viejas locas, letras, letra, acordes, canciones, cancion, grupo, banda, cantante, tablatura, partitura, tocar con guitarra, armónica, teclado, bajo, ejecutar, bajar, mp3, música, chords, lyrics, versión, cover, piano, acrodes, acordes de Homero, viejas locas

Inicio | Artistas | Recursos | Buscar | AGREGA TU TABLATURA A 10ACORDES | Contacto

www.10acordes.com.ar - 2014© - 2014-04-20 03:10:12