letra, letras, acorde, acordes, tablatura, tablaturas, partitura, partituras de la canción Hoy de Gloria Stefan, 14473

Hoy de Gloria Stefan

Colaboración de Jose Saiz (TAB)

(josesaiz @ hotmail.com)          (Visitas: 3095)

Ver Hoy de Gloria Stefan en vista para impresión



¿Dudas de cómo es un acorde? Visitar la página cómo formar acordes en guitarra

Tema: Hoy
Album: Unwrapped
Interpretada por Gloria Estefan
Letra y Musica: Gian Marcos


E ------|-----11-6-|-4-------|-----11-6-|-4-----|-----11---6-|-4------
B ------|-----0----|---4-4---|---4-0----|---7-9-|---4-0------|---4-4--
G ------|--------3-|-----4-3-|--------3-|-------|--------3---|-----4-3
D ------|---1------|---------|---1------|-------|---1--------|--------
A ------|----------|---------|----------|-------|------------|--------
E ------|-4--------|---------|-4--------|-------|-4----------|--------

E -|-----11-6-|-4---4-|---------|-4-----|---2-----|-4-4---|-------2---
B -|---4-0----|---7---|---4-0---|---4---|-----2---|---7---|-----0---0-
G -|--------3-|-------|-1-----1-|-------|-------3-|-----6-|---1-------
D -|---1------|-------|---------|-----9-|-4-------|-------|-2---------
A -|----------|-------|---------|-------|---------|-------|-----------
E -|-4--------|-------|-4-------|-------|-2-------|-------|-0---------

E --|-----2-----|-----7-2---|-----2---2-|---------|-----4---|-----2---
B --|-------2---|---0-----0-|---0-----2-|-------0-|-4-0---4-|---2---2-
G 1-|---3-----3-|-----------|-----------|-----3---|---------|---------
D --|-4---------|-----------|-----------|---1-----|---------|-4-------
A --|-----------|-2---------|-2-----1---|---------|---------|---------
E --|-2---------|-----------|-----------|-4-------|---------|-2-------

E --|-4-6---------|-----2-------|---------|-----------|-4-----|-------
B --|-----7-------|---0---0-----|-----4-2-|-----4-----|---4---|---4-0-
G --|-------6-----|-----------1-|---0-----|---1---4-3-|-------|-1-----
D 4-|-----------4-|-2-----------|-1-------|-----------|---1---|-------
A --|---------2-4-|-------------|---------|-----------|-------|-------
E --|-------------|-0-------0---|---------|-4---------|-----2-|-4-----

E --|-4-------|---2-----|-4-4-----|-------2-----|-----2-----|-----7-2-
B --|---4-----|-----2---|---7-----|-----0---0---|-------2---|---0-----
G 1-|---------|-------3-|-------6-|---1-------1-|---3-----3-|---------
D --|-------9-|-4-------|---------|-2-----------|-4---------|---------
A --|---------|---------|-----6---|-------------|-----------|-2-------
E --|-----0---|-2-------|---------|-0-----------|-2---------|---------

E --|-----2-----2---|---------|-----4-----|-----2-----|-4-6---------|-
B 0-|---0-------2---|-------0-|-4-0-----4-|---2---2---|-----7-------|-
G --|---------------|-----3---|-----------|-----------|---------6---|-
D --|-----------1---|---1-----|-----------|-4-------4-|-------1---4-|-
A --|-2-----2-1-----|---------|-----------|-----------|-------------|-
E 2-|-------------2-|-4-------|-------0---|-2---------|-------------|-

E ----2-----|-------------|-----------|-4-------|-7---6---2---|-7-6---
B --0---0---|-----4-2-----|-----4-----|---4-----|-5---5-------|-5-----
G --------1-|---0---------|---1---4-3-|---------|-1---1---1---|-1-1---
D 2---------|-1-------1-1-|-----------|-----1---|-2---2---2---|-2-2---
A ----------|-------------|-----------|---------|-----------2-|-----2-
E 0---------|-------------|-4---------|-------4-|-0-0---0-----|-0-0-0-

E 2---|-7-6---2---|-7-6---2---|-7-6---2---|-7-6-----2-|-4-6---7---|-9-
B ----|-7---------|-7---------|-7-7---0---|-7-------0-|-0-0-------|-0-
G 1---|-3-3---3---|-3-3---3---|-4-4-------|-4-4-------|-----------|---
D 2---|-4-4---4---|-4-4---4---|-4-4---4---|-4-4-----4-|-4-4---4-1-|-4-
A ----|---------4-|-----4-4---|-2-2-2-----|-2---1-----|-----------|-4-
E 0-1-|-2---2-----|-2-2-2---2-|---------2-|-------7---|-4-4-4-----|-4-


Juntos Podemos http://www.mashispano.com



Keywords / Palabras clave: Hoy, Gloria Stefan, letras, letra, acordes, canciones, cancion, grupo, banda, cantante, tablatura, partitura, tocar con guitarra, armónica, teclado, bajo, ejecutar, bajar, mp3, música, chords, lyrics, versión, cover, piano, acrodes, acordes de Hoy, Gloria Stefan

Inicio | Artistas | Recursos | Buscar | AGREGA TU TABLATURA A 10ACORDES | Contacto

www.10acordes.com.ar - 2014© - 2014-08-21 14:39:31