letra, letras, acorde, acordes, tablatura, tablaturas, partitura, partituras de la canción Jinetes en el cielo de Los Babys, 15408

Jinetes en el cielo de Los Babys

Colaboración de Cesar Aranda Contreras (TAB)

(cure290 @ hotmail.com)          (Visitas: 25632)

Ver Jinetes en el cielo de Los Babys en vista para impresión



¿Dudas de cómo es un acorde? Visitar la página cómo formar acordes en guitarra

Canción

1---------------------------------------
2---------------------------------------
3---------------------------------------
4---------------------------------------
5--0-0-0-0-2-3-3-3-3-0------------------
6-0-------------------3-3-3-3-0-3-------

1---------------------------------------
2---------------------------------------
3---------------------------------------
4-------------------0-2-2-2-2-0-2-------
5--0-0-0-0-2-3-3-3-3--------------------
6-0-------------------------------------

1---------------------------------------
2---------------------------------------
3----2-2--2-2---------------------------
4-2-2---------2-2--2-2------------------
5----------------------3-0--------------
6---------------------------------------

1---------------------------------------
2---------------------------------------
3---------------------------------------
4---------------------------------------
5----------3-3-3-3-3--------------------
6-0-1-1-1-1-----------------------------

1---------------------------------------
2---------------------------------------
3---------------------------------------
4---------------------------------------
5--7-7-7-7---7-7-7-7---7-7-7-7----------
6-5---------5--------5------------------

Mientras una guitarra hace eso 
la otra esta haciendo lo acordes 

Am-C-Am-G-Am-F

Y al finalizar la canción es:

Am-C-Am-G-Am-F-G-F-G-F-Am

Y eso es todo espero que la saquen
con la rapidez necesaria para que se 
escuche como es,ya que son
los acordes y pisadas verdaderas

Dudas,solos,comentarios o chistes que tengan
comuniquense con migo a:cure290@hotmail.com



Keywords / Palabras clave: Jinetes en el cielo, Los Babys, letras, letra, acordes, canciones, cancion, grupo, banda, cantante, tablatura, partitura, tocar con guitarra, armónica, teclado, bajo, ejecutar, bajar, mp3, música, chords, lyrics, versión, cover, piano, acrodes, acordes de Jinetes en el cielo, Los Babys

Inicio | Artistas | Recursos | Buscar | AGREGA TU TABLATURA A 10ACORDES | Contacto

www.10acordes.com.ar - 2014© - 2014-07-28 13:03:46