letra, letras, acorde, acordes, tablatura, tablaturas, partitura, partituras de la canción Killers de Transmetal, 15725

Killers de Transmetal

Colaboración de Fernando Moreno (TAB)

(alexeldermx @ hotmail.com)          (Visitas: 2661)

Ver Killers de Transmetal en vista para impresión



¿Dudas de cómo es un acorde? Visitar la página cómo formar acordes en guitarra

AQUI ESTA OTRA ROLA DE TRANSMETAL QUE ME PIDIERON

NOTA: Puede que suene un poco diferente a la version de estudio,creo que
en la de estudio es un tono mas alto, pero yo la saque del disco en vivo.

INTRO

e|--------------------------|
B|--------------------------|
G|--------------------------|
D|--------------------------|	Primera guitarra
A|--------------------------|
E|-9-9-9-9-12-11-11-9-9-8-9-|

e|------------------------|
B|------------------------|
G|------------------------|
D|------------------------|	Segunda guitarra
A|-7-7-7-7-10-9-9-7-7-6-7-|
E|------------------------|

La primjera guitarra se toca 2 veces sola y despues otras dos con 
la segunda.

VERSOS

    P.M..................|  
e|-----------------------------------|
B|-----------------------------------|
G|-----------------------------------|
D|-11-11-11-11-11-11-11-11-11/*14-10-|
A|-11-11-11-11-11-11-11-11-11/*14-10-|
E|-9--9--9--9--9--9--9--9--9-/*12-8--|

* Deja sonar los ultimos dos acordes 

CORO

e|---------------------------------|
B|---------------------------------|
G|---------------------------------|	X2
D|-11-11-11-11-11-11-11-14-13-10-11|
A|-11-11-11-11-11-11-11-14-13-10-11|
E|-9--9--9--9--9--9--9--12-11-8--9-|


e|--------------------------------------------------|
B|--------------------------------------------------|
G|--------------------------------------------------|
D|-11-11-11-11-11-11-11-14-13-10-7-7-7-7-9-9-9-9-*11|
A|-11-11-11-11-11-11-11-14-13-10-7-7-7-7-9-9-9-9-*11|
E|-9--9--9--9--9--9--9--12-11-8--5-5-5-5-7-7-7-7-*9-|

* Solo cuando acaba el coro

EL CORO VA MAS O MENOS RAPIDO HACI QUE TE RECOMIENDO
QUE EL RASGUEO LO AGAS ABAJO Y ARRIBA EN EL PRIMER ACORDE 
(Digo para que no se cansen =P)

CREO QUE ESO ES TODO EL SOLO NO LO HE SACADO

RECUERDA METAL UP YPOR ASS!!

SUGERENCIAS, COMENTARIOS:
alexeldermx@hotmail.com
o al ICQ #35637307



Keywords / Palabras clave: Killers, Transmetal, letras, letra, acordes, canciones, cancion, grupo, banda, cantante, tablatura, partitura, tocar con guitarra, armónica, teclado, bajo, ejecutar, bajar, mp3, música, chords, lyrics, versión, cover, piano, acrodes, acordes de Killers, Transmetal

Inicio | Artistas | Recursos | Buscar | AGREGA TU TABLATURA A 10ACORDES | Contacto

www.10acordes.com.ar - 2014© - 2014-10-31 21:45:02