letra, letras, acorde, acordes, tablatura, tablaturas, partitura, partituras de la canción la Bamba de los Lobos, 15873

la Bamba de los Lobos

Colaboración de Nicolas Borchers (TAB)

(Nickboy_pga @ yahoo.com)          (Visitas: 36706)

Ver la Bamba de los Lobos en vista para impresión



¿Dudas de cómo es un acorde? Visitar la página cómo formar acordes en guitarra

El punteo de la introduccion se puede de dos formas
1-
--------------0-3-1-1-5-3-3---1-1---------0-3-1-1-5-3-3----
-----------------------------------3------5-3--------------
---0-2-4-5-----------------------------------5-------------
-----------------------------------------------------------
-----------------------------------------------------------
-----------------------------------------------------------

2-
----------------------------------------------------------------------------
----------------------------------------------------------------------------
-----------------------2----------------------------------2-----------------
------------2-5-3-3---5-5---3-3-2------2-5-3-3--5-5---3-3-2-----------------
---0-2-3--------------------5----------5-3------------------5----------5-3--
-3--------------------------------------------------------------------------

el ritmo es con rasgueo en las siguientes notas_

Do-Fa-Sol
se repite el rasgueo durante la cancion.
saquen el ritmo con la cancion, es muy facil.



Keywords / Palabras clave: la Bamba, los Lobos, letras, letra, acordes, canciones, cancion, grupo, banda, cantante, tablatura, partitura, tocar con guitarra, armónica, teclado, bajo, ejecutar, bajar, mp3, música, chords, lyrics, versión, cover, piano, acrodes, acordes de la Bamba, los Lobos

Inicio | Artistas | Recursos | Buscar | AGREGA TU TABLATURA A 10ACORDES | Contacto

www.10acordes.com.ar - 2014© - 2014-09-20 08:37:26