letra, letras, acorde, acordes, tablatura, tablaturas, partitura, partituras de la canción La Canción del Pirata de Tierra Santa, 16021

La Canción del Pirata de Tierra Santa

Colaboración de Gran Godo (TAB)

(grangodo @ terra.es)          (Visitas: 2693)

Ver La Canción del Pirata de Tierra Santa en vista para impresión



¿Dudas de cómo es un acorde? Visitar la página cómo formar acordes en guitarra

Transcrita por: Gran Godo VII
Octubre 2000

Aqui va otra de Tierra Santa que parace que estoy inspirado con ellos. En las
partes que tienen muchas notas con Palm Mute seguidas no estan contadas las
notas, estan puestas mas o menos para que sirvan de guia. Os dejo con
Espronceda y espero que os guste.
Comentarios, pegas, el solo, etc... a grangodo@terra.es

PM = Palm Mute
h  = Hammer On
/  = Slide
~  = Vibrato

Intro
e|-------------------------------------------------------------------|
B|-------------------------------------------------------------------|
G|-------------------------------------------------------------------|
D|-------------------------------------------------------------------|
A|-0-0-0-0-0-0-0-0-0-0-0-0-0-0-0-0-0-0-0-0-0-0-0-0-0-0-0-0-0-0-0-0-0-|
E|-------------------------------------------------------------------|
 PM. . . . . . . . . . . . . . . . . . . . . . . . . . . . . . . . .

Riff 1
e|-------------------------------------------------------------------|
B|-------------------------------------------------------------------|
G|------9-7----7-------9-7----7-------9-7---------7-7/9~-------------| Gtr.
D|-7h10-----10----7h10-----10----7h10-----10-9-10--------------------|  I
A|-------------------------------------------------------------------|
E|-------------------------------------------------------------------|
 |                                                                   |
e|-------------------------------------------------------------------|
B|-------------------------------------------------------------------|
G|-------------------------------------------------------------------| Gtr.
D|-------------------------------------------------------------------|  II
A|-0-0-0-0-0-0-0-0-0-0-0-0-0-0-0-0-0-0-0-0-0-0-0-0-0-0-0-0-0-0-0-0-0-|
E|-------------------------------------------------------------------|
 PM. . . . . . . . . . . . . . . . . . . . . . . . . . . . . . . . .

e|-------------------------------------------------------------------|
B|-------------------------------------------------------------------|
G|------9-7----7-------9-7----7---------7----------------------------| Gtr.
D|-7h10-----10----7h10-----10----7h9-10---10-9-10-9-7~~--------------|  I
A|-------------------------------------------------------------------|
E|-------------------------------------------------------------------|
 |                                                                   |
e|-------------------------------------------------------------------|
B|-------------------------------------------------------------------|
G|-------------------------------------------------------------------| Gtr.
D|-------------------------------------------------------------------|  I
A|-0-0-0-0-0-0-0-0-0-0-0-0-0-0-0-----------------0-0-0-0-0-0-0-0-0-0-|
E|-------------------------------1-1-1-1-3-3-3-3---------------------|
 PM. . . . . . . . . . . . . . . . . . . . . . . . . . . . . . . . .
     
Repetir Riff 1 una vez

Riff 2
e|-------------------------------------------------------------------|
B|-------------------------------------------------------------------|
G|-2--------------------5--------------------------------------------|
D|-2----------3----5----5----5---------------------------------------|
A|-0----------3----5----3----5-----0-0-0-0-0-0-0-0-0-0-0-0-0-0-0-0-0-|
E|------------1----3---------3---------------------------------------|
                                 PM. . . . . . . . . . . . . . . . .

e|-------------------------------------------------------------------|
B|-------------------------------------------------------------------|
G|---------------------------------------------------------5---------|
D|-----------------------------------------------3----5----5----5----|
A|-0-0-0-0-0-0-0-0-0-0-0-0-0-0-0-0-0-0-0-0-0-0-0-3----5----3----5----|
E|-----------------------------------------------1----3---------3----|
 PM. . . . . . . . . . . . . . . . . . . . . . .

Repetir Riff 1 una vez

Repetir Riff 2 una vez

Repetir Riff 1 una vez

Riff 3
e|---------------------------------|
B|---------------------------------|
G|---------5-------2---------------|
D|-3---5---5---5---2---5---3---5---|
A|-3---5---3---5---0---5---3---5---|
E|-1---3-------3-------3---1---3---|

Riff 4
e|---------------------------------------------|
B|---------------------------------------------|
G|-7---5---3---2---3-5---7---5---3---2---3-5---|
D|-7---5---3---2---3-5---7---5---3---2---3-5---|
A|-5---3---1---0---1-3---5---3---1---0---1-3---|
E|---------------------------------------------|

Riff 5
e|----------------------------------------------------|
B|----------------------------------------------------|
G|-7------------5------------3------------2------3-5--| Gtr.
D|-7------------5------------3------------2------3-5--|  I
A|-5------------3------------1------------0------1-3--|
E|----------------------------------------------------|
 |                                                    |
e|----------------------------------------------------|
B|----------------------------------------------------|
G|-----------------------------------------------3-5--| Gtr.
D|-----------------------------------------------3-5--|  II
A|-555555555555-333333333333-111111111111-000000-1-3--|
E|----------------------------------------------------|
 PM............ ............ ............ ......

e|-----------------------------------------------------------|
B|-----------------------------------------------------------|
G|-7------------5------------3------------2------------------| Gtr.
D|-7------------5------------3------------2------------------|  I
A|-5------------3------------1------------0------------------|
E|-----------------------------------------------------------|
 |                                                           |
e|-----------------------------------------------------------|
B|-----------------------------------------------------------|
G|-----------------------------------------------------------| Gtr.
D|-----------------------------------------------------------|  II
A|-555555555555-333333333333-111111111111-000000000000000000-|
E|-----------------------------------------------------------|
 PM............ ............ ............ ..................

Riff 6
e|----------------------------------------------------|
B|------------------------------------------8--101010-|
G|-777-9-7-9-10-9-7-9-7----777-9-7-9-10-9-7-----------| Gtr.
D|----------------------10----------------------------|  I
A|----------------------------------------------------|
 |                                                    |
e|----------------------------------------------------|
B|----------------------------------------------------|
G|----------------------------------------------------| Gtr.
D|----------------------------------------------------|  II
A|-5-5-5-5-5-5-5-5-5-5-5-5-5-5-5-5-5-5-5-5-5-5--1-1-1-|
E|----------------------------------------------------|
 PM. . . . . . . . . . . . . . . . . . . . . .  . . .

e|-----------------------------------------------------------|
B|-11-10-8-10-8----8-----------------------------------------|
G|--------------10---10-9-10-9-7-9-7----7-9-10-9-7----7-9-10-| Gtr.
D|-----------------------------------10------------10--------|  I
A|-----------------------------------------------------------|
E|-----------------------------------------------------------|
 |                                                           |
e|-----------------------------------------------------------|
B|-----------------------------------------------------------|
G|-----------------------------------------------------------| Gtr.
D|-----------------------------------------------------------|  II
A|-1-1-1-1-1-1-1-1-1-1-1-1-1-1-1-3-3-3-3-3-3-3-0-0-0-0-0-0-0-|
E|-----------------------------------------------------------|
 PM. . . . . . . . . . . . . . . . . . . . . . . . . . . . .

Repetir Riff 6 una vez

Solo

Ritmo bajo el solo
e|---------------------------------------------------------|
B|---------------------------------------------------------|
G|*--------------------------------------------------------|
D|*--------------------------------------------------------|
A|--5-5-5-5-5-5-5-5-5-5-5-5-5-5-5-5-5-5-5-5-5-5--1-1-1-1-1-|
E|---------------------------------------------------------|
  PM. . . . . . . . . . . . . . . . . . . . . .  . . . . .

e|---------------------------------------------------------|
B|---------------------------------------------------------|
G|--------------------------------------------------------*|
D|--------------------------------------------------------*|
A|-1-1-1-1-1-1-1-1-1-1-1-1-1-3-3-3-3-3-3-3-0-0-0-0-0-0-0---|
E|---------------------------------------------------------|
 PM. . . . . . . . . . . . . . . . . . . . . . . . . . .

e|---------------------------------------------------------|
B|---------------------------------------------------------|
G|---------------------------------------------------------| 
D|---------------------------------------------------------| 
A|-1-1-1-1-1-1-1-1-1-1-1-1-1-3-3-3-3-3-3-3-3-3-3-3-3-3-5-5-|
E|---------------------------------------------------------|
 PM. . . . . . . . . . . . . . . . . . . . . . . . . . . .

e|---------------------------------------------------------|
B|---------------------------------------------------------|
G|---------------------------------------------------------|
D|---------------------------------------------------------|
A|-5-5-5-5-5-5-5-5-5-5-5-5-5-5-5-5-5-1-1-1-1-1-1-1-1-1-1-1-|
E|---------------------------------------------------------|
 PM. . . . . . . . . . . . . . . . . . . . . . . . . . . .

e|---------------------------------------------------------|
B|---------------------------------------------------------|
G|---------------------------------------------------------|
D|---------------------------------------------------------|
A|-1-1-3-3-3-3-3-3-3-3-3-3-3-3-3-0-0-0-0-0-0-0-0-0-0-0-0-0-|
E|---------------------------------------------------------|
 PM. . . . . . . . . . . . . . . . . . . . . . . . . . . .

e|-------------|
B|-------------|
G|-------------|
D|-------------|
A|-0-0-0-0-0-0-|
E|-------------|
 PM. . . . . . 

Riff 7 
e|-------------------------------------------------|
B|-------------------------------------------------|
G|-7-----3-----5-----2-----7-----3-----5-----2-----|
D|-7-----3-----5-----2-----7-----3-----5-----2-----|
A|-5-----1-----3-----0-----5-----1-----3-----0-----|
E|-------------------------------------------------|

Repetir Riff 4 una vez

Repetir Riff 5 una vez

Riff 8
e|-------------------------------------------------------------------|
B|------10-8----8-------10-8----8-------10-8---------8-8/10~---------| Gtr.
G|-7h10------10----7h10------10----7h10------10-9-10-----------------|  I
D|-------------------------------------------------------------------|
A|-------------------------------------------------------------------|
E|-------------------------------------------------------------------|
 |                                                                   |
e|-------------------------------------------------------------------|
B|-------------------------------------------------------------------| Gtr.
G|-------------------------------------------------------------------|  II
D|-0-0-0-0-0-0-0-0-0-0-0-0-0-0-0-0-0-0-0-0-0-0-0-0-0-0-0-0-0-0-0-0-0-|
A|-------------------------------------------------------------------|
E|-------------------------------------------------------------------|
 PM. . . . . . . . . . . . . . . . . . . . . . . . . . . . . . . . .

e|-------------------------------------------------------------------|
B|------10-8----8-------10-8----8---------8--------------------------| Gtr.
G|-7h10------10----7h10------10----7h9-10---10-9-10-9-7~-------------|  I
D|-------------------------------------------------------------------|
A|-------------------------------------------------------------------|
E|-------------------------------------------------------------------|
 |                                                                   |
e|-------------------------------------------------------------------|
B|-------------------------------------------------------------------| Gtr.
G|-------------------------------------------------------------------|  I
D|-0-0-0-0-0-0-0-0-0-0-0-0-0-0-0-----------------0-0-0-0-0-0-0-0-0-0-|
A|-------------------------------1-1-1-1-3-3-3-3---------------------|
E|-------------------------------------------------------------------|
 PM. . . . . . . . . . . . . . . . . . . . . . . . . . . . . . . . .

Outro
e|-------------------------------------------------|
B|-----------8-------------------------------------|
G|-7h9h10~------10--9~---/10--9---7~---------------| Gtr.
D|-------------------------------------------------|  I
A|-------------------------------------------------|
E|-------------------------------------------------|
 |                                                 |
e|-------------------------------------------------|
B|-------------------------------------------------|
G|-----3------------5-------------7~---------------| Gtr.
D|-----3------------5-------------7~---------------|  II
A|-----1------------3-------------5~---------------|
E|-------------------------------------------------|



Keywords / Palabras clave: La Canción del Pirata, Tierra Santa, letras, letra, acordes, canciones, cancion, grupo, banda, cantante, tablatura, partitura, tocar con guitarra, armónica, teclado, bajo, ejecutar, bajar, mp3, música, chords, lyrics, versión, cover, piano, acrodes, acordes de La Canción del Pirata, Tierra Santa

Inicio | Artistas | Recursos | Buscar | AGREGA TU TABLATURA A 10ACORDES | Contacto

www.10acordes.com.ar - 2014© - 2014-10-01 20:59:58