letra, letras, acorde, acordes, tablatura, tablaturas, partitura, partituras de la canción La cumbia de los pajaritos de Los Mirlos, 16335

La cumbia de los pajaritos de Los Mirlos

Colaboración de URBAN G. EMMANUEL (TAB)

(therionman @ hotmail.com)          (Visitas: 46625)

Ver La cumbia de los pajaritos de Los Mirlos en vista para impresión



¿Dudas de cómo es un acorde? Visitar la página cómo formar acordes en guitarra

ESTA ES LA PRIMERA VEZ QUE COLABORO ESPERO QUE LES SEA DE 
MUCHA UTILIDAD ESTA TRANSCRIPCION QUE HICE. THERIONMAN DEGGIAL

PRIMERA PARTE
RIFF 1....
---------------------------
---------------------------
---------------------------
-----------0H2-2-2-2-2--0--
-0-0-0-0-3-------------2---
---------------------------

---------------------------
---------------------------
---------------------------
-----------0H2-2-2-2-2--0--
-0-0-0-0-3-------------2---
---------------------------

----------------------------
----------------------------
----------------------------
-----------0H2-2-2-2-2--0---
-0-0-0-0-3-------------2---0
----------------------------

RIFF2 

---0-0-0-1p0-------
--1----------0-3---
-2---------------2-
-------------------
-------------------
-------------------

-----0-0-0-3-------
-1-1---------0-3---
--2-------------2--
-------------------
-------------------
-------------------

----0-3-2-1-0-------------
-1-1---------3-1-0-3-1-0--
--2---------------------2-
--------------------------
--------------------------
--------------------------
CAMBIO RAPIDO AL RIFF 1, CHECA LA VARIANTE AL PRINCIPIO...

----------------------
----------------------
----------------------
------0H2-2-2-2-2--0--
--0H3-------------2---
----------------------

---------------------------
---------------------------
---------------------------
-----------0H2-2-2-2-2--0--
-0-0-0-0-3-------------2---
---------------------------

----------------------------
----------------------------
----------------------------
-----------0H2-2-2-2-2--0---
-0-0-0-0-3-------------2---0
----------------------------

CAMBIO AL RIFF2 CHECA LA VARIANTE AL FINAL PARA PASAR AL RIFF 3 

---0-0-0-1p0-------
--1----------0-3---
-2---------------2-
-------------------
-------------------
-------------------

-----0-0-0-3-------
-1-1---------0-3---
--2-------------2--
-------------------
-------------------
-------------------

----0-3-2-1-0--------------
-1-1---------3-1-0-3-1-0---
--2---------------------2/-
---------------------------
---------------------------
---------------------------

RIFF3
-----------8-9/12----12-----10/8---
---------10--9/12--12--12-12----10-
-2/10--10--------------------------
-----------------------------------
-----------------------------------
-----------------------------------

-----------8-9/12----12-----10/8---
---------10--9/12--12--12-12----10-
---10--10--------------------------
-----------------------------------
-----------------------------------
-----------------------------------

-----------8-9/12----12-----10/8---
---------10--9/12--12--12-12----10-
---10--10--------------------------
-----------------------------------
-----------------------------------
-----------------------------------

-----------8-9/12----12-----10/8---
---------10--9/12--12--12-12----10-
---10--10--------------------------
-----------------------------------
-----------------------------------
-----------------------------------

RIFF 4
---------------------------
--5------------------------
--5------------4-----------
-7--7/5-5-5-5-5-5-5/7-7-7--
---------------------------
---------------------------

---------------------------
--5------------------------
--5------------4-----------
-7--7/5-5-5-5-5-5-5/7-7-7--
---------------------------
---------------------------

---------------------------
--5------------------------
--5------------4-----------
-7--7/5-5-5-5-5-5-5/7------
---------------------------
---------------------------

RIFF 5

--5--3-3-3-3-3/5-5-5-
-5-5------3-3--------
---------------------
---------------------
---------------------
---------------------

--5--3-3-3-3-3/5-5-5-
-5-5------3-3--------
---------------------
---------------------
---------------------
---------------------

--5--3-3-3-3-3/5-5-5-
-5-5------3-3--------
---------------------
---------------------
---------------------
---------------------

--5--3-3-3-3---5/1---
-5-5------3-3--5/1---
---------------------
---------------------
---------------------
---------------------

ESTA ES LA PARTE EN DONDE EL BAJO DA EL RITMO...

A CONTINUACION VIENE LA MISMA PARTE DE LA CANCION COMO LA
HEMOS VISTO DEL RIFF 1 AL RIFF 4 Y VIENE LA ULTIMA PARTE 
QUE ES ESTA VARIABLE A LA QUE HE NOMBRADO RIFF6.... 

RIFF 6

---7---7---9---11----12---11----12---11/-
-----------------------------------------
-----5---7---9----10----9----10----9/----
-7---------------------------------------
-----------------------------------------
-----------------------------------------

----17----16----15----14----13----12---11----12---11-----12---11-
-----------------------------------------------------------------
-14----13----12----11----10----10----9----10----9-----10----9----
-----------------------------------------------------------------
-----------------------------------------------------------------
-----------------------------------------------------------------

PARTE FINAL.....

RIFF 7

-5-5-5-3-3-4-5-8---
--5-5-----3--------
-------------------
-------------------
-------------------
-------------------

-5-5-5-3-3-4-5-8---
--5-5-----3--------
-------------------
-------------------
-------------------
-------------------

-5-5-5-3-3-4-5-8---
--5-5-----3--------
-------------------
-------------------
-------------------
-------------------

-5-5-5-3-3-4--5/1--
--5-5-----3---5/1--
-------------------
-------------------
-------------------
-------------------

 CUALQUIER DUDA, COMENTARIO O MENTADA DE MADRE FAVOR 
DE ESCRIBIRME.

DESCANSEN EN PAZ



Keywords / Palabras clave: La cumbia de los pajaritos, Los Mirlos, letras, letra, acordes, canciones, cancion, grupo, banda, cantante, tablatura, partitura, tocar con guitarra, armónica, teclado, bajo, ejecutar, bajar, mp3, música, chords, lyrics, versión, cover, piano, acrodes, acordes de La cumbia de los pajaritos, Los Mirlos

Inicio | Artistas | Recursos | Buscar | AGREGA TU TABLATURA A 10ACORDES | Contacto

www.10acordes.com.ar - 2014© - 2014-12-22 03:05:04