letra, letras, acorde, acordes, tablatura, tablaturas, partitura, partituras de la canción La danza de los mirlos de Damas Gratis, 16365

La danza de los mirlos de Damas Gratis

Colaboración de Lucas Palleiro (TAB)

(yotomo @ s5.coopenet.com.ar)          (Visitas: 26612)

Ver La danza de los mirlos de Damas Gratis en vista para impresión



¿Dudas de cómo es un acorde? Visitar la página cómo formar acordes en guitarra

1|-----------------------------------------------------------------------------------------------------
2|------------------------------------------------3--5--5--5--5--5--3--5-----3--5--5--5--5--5--3--5----
3|------------------------------------------------------------------------4--------------------------4-
4|--0--0--0--0--3--5--7--7--7--7--2--5--[x4]--0--------------------------------------------------------
5|-----------------------------------------------------------------------------------------------------
6|-----------------------------------------------------------------------------------------------------


1|--------------------------------------------------|------------------------------
2|--3--5--5--5--5--8--7--6--5--3--4--5--3-----------|------------------------------
3|-----------------------------------------4--[x3]--|-empezar todo de nuevo--------
4|--------------------------------------------------|------------------------------
5|--------------------------------------------------|------------------------------
6|--------------------------------------------------|------------------------------

1|--------------------------------------
2|-5--6--7--8--8--8--8--5--7------------
3|----------------------------6-[x4]----
4|--------------------------------------
5|--------------------------------------
6|--------------------------------------

1|------------------------------------------------------------------------------------------------------
2|-----1-----------------0--3------------1----------------0--3-----------1----------------0--3----------
3|--2----2--0--0--0--0--------2--2--2--2----2--0--0--0--0------2--2----2----2--0--0--0--0------2--2--2--
4|------------------------------------------------------------------------------------------------------
5|------------------------------------------------------------------------------------------------------
6|------------------------------------------------------------------------------------------------------


1|----------------------------------------------------------|
2|-----1-----------------0--3--3->4->5->6->7->8->9->10->11--|
3|--2----2--0--0--0--0--------------------------------------|
4|----------------------------------------------------------|
5|----------------------------------------------------------|
6|----------------------------------------------------------|

las notas separadas con -> se tocan arrastrando el dedo en el traste de la guitarra



Keywords / Palabras clave: La danza de los mirlos, Damas Gratis, letras, letra, acordes, canciones, cancion, grupo, banda, cantante, tablatura, partitura, tocar con guitarra, armónica, teclado, bajo, ejecutar, bajar, mp3, música, chords, lyrics, versión, cover, piano, acrodes, acordes de La danza de los mirlos, Damas Gratis

Inicio | Artistas | Recursos | Buscar | AGREGA TU TABLATURA A 10ACORDES | Contacto

www.10acordes.com.ar - 2014© - 2014-10-21 00:26:50